Song name
# A B C D E F G H I J K L M N O P Q R S T U V W X Y Z

The Civil Wars - Same Old Same Old tab

The Civil Wars - Same Old Same Old
Standard Tuning / Capo 1st Fret

This is my first attempt at tab making. The chord names look 
intimidating and I'm sure they're not 100%, but for the most 
part they're very simple just use the diagram.



|-0-----0--------0---------0----------0--------0-------0---|
|-0-----0--------0---------0----------0--------4-------2---|
|-1-----2--------2---------4----------1--------2-------3---|
|-2-----2--------2---------4----------2--------1-------2---|
|-2-----0--------4---------2----------0--------2-------1---|
|-0--------------------------------------------------------|
  E   Asus2   Asus2/C#   Bsus4?   Amaj7sus2   B7#9   Bbdim



-Intro-

e|------------------------------------------|
B|------------------------------------------|
G|------------------------------------------|
D|------------------------------------------|
A|---------2h4-4p2---------------2h4-4/7----|
E|-0---------------------0------------------| 2x


-Verse 1-

I wanna leave you, I wanna lose us

I wanna give up, but I won't

I wanna miss this, I wanna heartache

I wanna run away, but I won't


-Chorus-
     Asus2        E
Do I love you, oh I do
        Bsus4             E
And I'm going to, til I'm gone
           Asus2
But if you think that I can stay
        E         Bsus4    Asus2  Amaj7sus2  Asus2
In this same old, same old way.   I don't

I don't


-Intro- 1x

-Verse 2-
          E                     Asus2/C#
I'm gonna break things, I'm gonna cross the line
         B7#9              E
Make you wake up, cause you won't
          E                     Asus2/C#
I'm gonna name names, I'm gonna call us out
         B7#9           E
I'm gonna say it, if you won't


-Chorus-
     Asus2        E
Do I love you, oh I do
        Bsus4             E
And I'm going to, til I'm gone
           Asus2
But if you think that I can stay
        E         Bsus4    Asus2  Amaj7sus2  Asus2
In this same old, same old way.   I don't
     Bbdim
I don't wanna fight
         Asus2                Bbdim
But I'll fight with you, if I have to
     Bsus4
If I have to


-Chorus-
     Asus2        E
Do I love you, oh I do
        Bsus4             E
And I'm going to, til I'm gone
           Asus2
But if you think that I can stay
        E         Bsus4    Asus2
In this same old, same old
          Bsus4    Asus2
Same old, same old way
  Amaj7sus2  Asus2
Well I don't


-Intro- 2x
Tap to rate this tab
# A B C D E F G H I J K L M N O P Q R S T U V W X Y Z