Song name
# A B C D E F G H I J K L M N O P Q R S T U V W X Y Z

The Civil Wars - Tell Mama tab

----------------------------------------------------------------- 
TELL MAMA - The Civil Wars 
-----------------------------------------------------------------

Tuning: Standard
CAPO 3

Intro:
e|----------------0-----------------------------------0----------|
B|----------3-----------0-----------------------3-----------0----|
G|----0-----------------------------------0----------------------|
D|-------2-----2-----2-----------------------2-----2-----2-------|
A|-------------------------------------3-----------------------3-|
E|-0-----------------------0-------------------------------------| 2x

Verses:

e|---------------------------------------------------------------|
B|---------------------------------------------------------------|
G|----0-----0-----0-----0-----0-----0-----0-----0-----0-----0----|
D|-------2-----2-----2-----------2-----2-----2-----------4-----4-|
A|-------------------------------------------------5-------------|
E|-0-----------------------0-------------------------------------|

e|---------------------------------------------------------------|
B|---------------------------------------------------------------|
G|-0-----0-----0-----0-----0-----0-----0-----0-----0-----0-----0-|
D|----4-----------4-----4-----4-----------2-----2-----2----------|
A|----------5-----------------------3-----------------------3----|
E|---------------------------------------------------------------|

e|---------------------------------------------------------------|
B|---------------------------------------------------------------|
G|----0-----0-----0-----0-----0-----0-----0-----0-----0-----0---0|
D|-2-----2-----2-----------0-----0-----0-----------0-------------|
A|-------------------2-----------------------0-------------------|
E|-------------------------------------------------------3----2--| 2x

I have yet to learn the chorus and bridge but I'll keep you updated.

Tap to rate this tab
 
# A B C D E F G H I J K L M N O P Q R S T U V W X Y Z