Song name
# A B C D E F G H I J K L M N O P Q R S T U V W X Y Z

The Civil Wars - Go tab

                                          Artist - The Civil Wars
                                         *************************
                                                Song - Go
                                               ***********
                                         Album - Poison & Wine EP 
                                        ***************************
                                           Tabbed By - Ayreon77
                                          **********************


INTRO
******

[-------h------0-|-------h------7-|-------h------0-|-------h-----]
[--h---0-8-------|--h---0-8-------|--h---0-8-------|--h---0-8----]
[-0-7-------0----|-0-7-------0----|-0-7-------0----|-0-7-------0-] 
[----------------|----------------|----------------|-------------]
[----------------|----------------|----------------|-------------]
[----------------|----------------|----------------|-------------]


-------------------------------------------------------------------------
VERSE 1
********

  Why    do    you   Keep  looking   out   the   window
  How   if   you   knew   what   I   was   thinking
[-------h------0-|-------h------7-|-------h------0-|-------h-----]
[--h---0-8-------|--h---0-8-------|--h---0-8-------|--h---0-8----]
[-0-7-------0----|-0-7-------0----|-0-7-------0----|-0-7-------0-] 
[----------------|----------------|----------------|-------------]
[----------------|----------------|----------------|-------------]
[----------------|----------------|----------------|-------------]

  Is   there   something   left  behind   or  never  found
  I    wonder  if   they    even    dry    a    tear
[-------h------0-|-------h------0-|-------h------0-|-------h-----]
[--h---0-5-------|--h---0-5-------|--h---0-8-------|--h---0-8----]
[-0-5-------0----|-0-5-------0----|-0-7-------0----|-0-7-------0-]
[----------------|----------------|----------------|-------------]
[----------------|----------------|----------------|-------------]
[----------------|----------------|----------------|-------------]

  Mmm    do    I    even    want    to    move
  Oh,  there's   just   one   way   to   find   out
[-------h------0-|-------h------0-|-------h------0-|-------h-----]
[--h---0-7-------|--h---0-5-------|--h---0-8-------|--h---0-8----]
[-0-7-------0----|-0-5-------0----|-0-7-------0----|-0-7-------0-]
[----------------|----------------|----------------|-------------]
[----------------|----------------|----------------|-------------]
[----------------|----------------|----------------|-------------]


-------------------------------------------------------------------------
CHORUS
*******
 00:46 
   Go       Oh        Oh                Go        Oh        Oh      
[-------------------------------------|-------------------------------------]
[-------------------------------------|-------------------------------------]
[-------5---------7---------0---0---0-|-------5---------7---------0---0---0-]
[--h--5------s--7------s--5-----------|--h--5------s--7------s--5-----------]
[-0-3-------3\5-------5\7-----7---7---|-0-3-------3\5-------5\7-----7---7---]
[-------------------------------------|-------------------------------------]

  Go        Oh      Oh 
[-------------------------------------------|--------------------------]
[-------------------------------------------|--------------------------]
[-------5---------7--------0----0----0----0-|--------0-----0----0----0-]
[--h--5------s--7--------0------0----0----0-|------0-------0----0----0-]
[-0-3-------3\5------h----------------------|--h-----------------------]
[-------------------0-3------3----3----3----|-0-3-------3----3----3----]


-------------------------------------------------------------------------
VERSE 2
********
  
  Did  Sirens  steal  your  heart  when  you  were  looking
  I'd  have   to   say   I   didn't   see  this  coming
[------------------------------------------------------------]
[------------------------------------------------------------]
[---------0-------0----0----0------------0-------0----0----0-]
[------0----------0----0----0---------0----------0----0----0-]
[--h------------------------------h--------------------------]
[-0-3-----------3----3----3------0-3-----------3----3----3---]


  Where'd  you  learn  to  lie  the  way  you  do
  But    whhhhhoooooooooooooo   does 
[---------------------------|---------------------------]
[---------------------------|---------------------------]
[--------5----5-----5-----5-|--------0----0-----0-----0-]
[--h---5------5-----5-----5-|------0------0-----0-----0-]
[-3-5------3-----3-----3----|--h------------------------]
[---------------------------|-0-3------3-----3-----3----]


  Look's   like   you   made   up   your   mind
  You  won't  want  to  see  me  standing  in  the  door,  So
[----------------|-----------------|---------------------------]
[----------------|-----------------|---------------------------]
[---------7------|---------5-----5-|--------0----0-----0-----0-]
[--s---7-------7-|--h---5--------5-|------0------0-----0-----0-]
[-3\5-------5----|-0-3--------3----|--h------------------------]
[----------------|-----------------|-0-3------3-----3-----3----]


-------------------------------------------------------------------------
CHORUS
*******
 01:43 
   Go       Oh        Oh                Go        Oh        Oh      
[-------------------------------------|-------------------------------------]
[-------------------------------------|-------------------------------------]
[-------5---------7---------0---0---0-|-------5---------7---------0---0---0-]
[--h--5------s--7------s--5-----------|--h--5------s--7------s--5-----------]
[-0-3-------3\5-------5\7-----7---7---|-0-3-------3\5-------5\7-----7---7---]
[-------------------------------------|-------------------------------------]

  Go        Oh      Oh 
[-------------------------------------------|--------------------------]
[-------------------------------------------|--------------------------]
[-------5---------7--------0----0----0----0-|--------0-----0----0----0-]
[--h--5------s--7--------0------0----0----0-|------0-------0----0----0-]
[-0-3-------3\5------h----------------------|--h-----------------------]
[-------------------0-3------3----3----3----|-0-3-------3----3----3----]


-------------------------------------------------------------------------
BRIDGE
*******
 I don't want to hurt you,
                     Do you ever listen
                                 You're not the only one
[-----------------|-------------|------------------------]
[-----------------|-------------|------------------------]
[--------2-----2--|-----------0-|----------0-------------]
[-----2-----------|--------2----|---h---2--------2-------]
[--0--------0-----|-----2-------|--0-3--------3--------0-]
[-----------------|--0----------|-------------------2----]


 I don't want to touch you
                   Eternally I'm broken
                                 Who but we become
[-----------------|-------------|------------------------]
[-----------------|-------------|------------------------]
[--------2-----2--|-----------0-|----------0-------------]
[-----2-----------|--------2----|---h---2--------2-------]
[--0--------0-----|-----2-------|--0-3--------3--------0-]
[-----------------|--0----------|-------------------2----]


 Who but we become
       How do you care
                They need you I don't want to
[--------------|---------------|--------]
[--------------|---------------|--------]
[----2------2--|-----0------0--|----0---]
[----2------2--|-----0------2--|----0---]
[-0------0-----|--2------3-----|--------]
[--------------|---------------|-2------]


-------------------------------------------------------------------------
CHORUS
*******
 02:14 
   Go       Oh        Oh                Go        Oh        Oh      
[-------------------------------------|------------------------------------]
[-------------------------------------|------------------------------------]
[-------5---------7---------0---0---0-|-------5---------7--------0---0---0-]
[--h--5------s--7------s--5-----------|--h--5------s--7------s-------------]
[-0-3-------3\5-------5\7-----7---7---|-0-3-------3\5-------5\7----7---7---]
[-------------------------------------|------------------------------------]

  Grow      Oh
[-------------------]
[-------------------]
[-------5---------7-]
[--h--5------s--7---]
[-0-3-------3\5-----]
[-------------------]


-------------------------------------------------------------------------
OUTRO
******

[-------h------0-|-------h------7-|-------h------0-|-------h-----]
[--h---0-8-------|--h---0-8-------|--h---0-8-------|--h---0-8----]
[-0-7-------0----|-0-7-------0----|-0-7-------0----|-0-7-------0-] 
[----------------|----------------|----------------|-------------]
[----------------|----------------|----------------|-------------]
[----------------|----------------|----------------|-------------]


I don't want to go   I don't want to stay
I don't want to stay I don't want to go
[--------h------0--|--------h------7--|--------h------0--|--------h------]
[---h---0-8--------|---h---0-8--------|---h---0-8--------|---h---0-8-----]
[--0-7-------0-----|--0-7-------0-----|--0-7-------0-----|--0-7-------0--] 
[------------------|------------------|------------------|---------------]
[------------------|------------------|------------------|---------------]
[------------------|------------------|------------------|---------------]



A nice tune indeed. Enjoy.............
Tap to rate this tab
# A B C D E F G H I J K L M N O P Q R S T U V W X Y Z