Song name
# A B C D E F G H I J K L M N O P Q R S T U V W X Y Z

The Civil Wars - Oh Henry tab

-------------------------------------------------------------------------------
                             OH HENRY - The Civil Wars
-------------------------------------------------------------------------------
Tabbed by: Charlie Hillman      
E-mail: charliehillman100@hotmail.com

Tried out the other version and saw a few mistakes, and wasn't the most helpful 
tab to learn, so I decided to make my own based on his :)
I had a good stab at doing the strumming patterns, but to properly get it you have 
to listen to the song a bit. 

Tuning: DADGAD 
Capo on 3rd (Live version is on 5th)

D - Downstroke

U - Upstroke 


Intro                         

Play the first bar, then the bar for the first time only. Repeat the first bar, 
then playing the bar for the second 
time only. Do a few random strokes on that chord at the end leading into the verse. 

                              First Time Only                  Second Time Only
                              __________________               __________________
   D U  U D U  U D U  U D U  |  U D U  U D U  U D U  D U  D U |  U D U  D U  D U  D D 
                             |                                |                     
D|-0-0--0-0-0--0-0-0--0-0-0-|| -0-0-0--0-0-0--0-0-0--0-0--0-0-| -0-0-0--0-0--0-0----0--|
A|-0-0--0-0-0--0-0-0--0-0-0-|| -0-0-0--0-0-0--0-0-0--0-0--0-0-| -0-0-0--0-0--0-0----0--|
G|-2-2--2-2-2--2-2-2--2-2-2-|| -2-2-2--2-2-2--2-2-0--2-2--2-2-| -2-2-0--2-2--2-2----2--|
D|-0-0--0-0h3--0-0-0--0-0-0-|| -0-0-0--0-0h3--0-0-0--0-0--0-0-| -0-0-0--0-0--0-0--0-0--|
A|-0h3--0-0-0--0-0h3--0-0-0-|| -0-0h3--0-0-0--0-0-0--0-0--0-0-| -0-0-0--0-0--0-0--0-0--|
D|-0-0--0-0-0--0-0-0--0-0-0-|| -0-0-0--0-0-0--0-3/5--3-3--2-2-| -0-3/5--3-3--2-2--0-0--|

Verse 
                                   D  U D U  D   D  U  D
                                                                     
D|-0--------0---0---0--------------0--0-0-0--0---0--0--0--------------|
A|-0--------0---0---0--------------0--0-0-0--0---0--0--0--------------|
G|-2--------2---2---2--------------5--5-5-5--0---2--2--2--------------|
D|-0----0---0---0---4-few strokes--0--0-0-0--0---0--0--4-few strokes--|
A|-0----0---0---0---0--------------0--0-0-0--0---0--0--0--------------|
D|-0----0---0---0---0--------------5--5-5-5--4---3--0--0------------- |
   Oh the Grass is Green           Everywhere but underneath
   I got a wedding band           In the name of a wondering man 
 
                                     1.                   2.
                                     __________           _________
   D   D D    D   D U D U    D      |  U D   D D    D    |
                                    |                    |
D|----------------0-0-0-0----0-----|| -0-0---0-0----0----|-0--0--------|
A|----------------0-0-0-0----0-----|| -0-3p0-0-3p0--0----|-0--0--------|
G|-2-----2--------2-2-0-2----2-----|| -2-2---0-2----0----|-2--2--------|
D|-0---0-0----0---0-0-0-0----0-----|| -0-0---0-0----0----|-0--0--------|
A|-3p0-0-3p0--0---0-0-0-0----0-----|| -0-----------------|-0--0--------|
D|-0---0-0----0---0-3/5-3/2--0-----|| -0-----------------|-0--0--------|
            Oooh so   it    seems 
           I love the best I can


Chorus                                                                    1.
                                                                          _____________
                                                                         |
D|-2------------------0------------------2---------------0--------------|| -0-------------|
A|-2------------------0------------------2---------------0--------------|| -0-------------|
G|-2-few strokes------0-few strokes------2-few strokes---0-few strokes--|| -2-few strokes-|
D|-2------------------0------------------2---------------0--------------|| -0-------------|
A|-0------------------0------------------0---------------0--------------|| -0-------------|
D|--------------------5----------------------------------5--------------|| -0-------------|
 Oh Henry......      tell me....       sayin'.....       around
 Oh Henry......      hurt me....       don't need...     town 


  2.
  ____________
 | D D D D
 |
D|--------------|
A|--------------|  Back to Intro, then verse, then chorus 
G|-0-0-0-0------|
D|-0-0-0-0------| 
A|-0-0-0-0------|
D|-3-3-3-3------|


Bridge 

   D U  U D U  U D U  U D U  D   D D   D D   D D

D|-0-0--0-0-0--0-0-0--0-0-0--0-----0-----0---0-0--|
A|-0-0--0-0-0--0-0-0--0-0-0--0-----0-----0---0-0--|
G|-2-2--2-2-2--2-2-2--2-2-2--2-----2-----2---2-2--|
D|-0-0--0-0h3--0-0-0--0-0-0--3p0-0-3p0-0-3p0-0-0--|
A|-0h3--0-0-0--0-0h3--0-0-0--0---0-0---0-0---0-0--|
D|-0-0--0-0-0--0-0-0--0-0-0--0---0-0---0-0---2-0--|

D|-0----------------0------------------|
A|-1----------------0------------------|
G|-4----------------2------------------|
D|-0----------------3------------------| x2
A|-1----------------0------------------|
D|-0----------------0------------------|
  When we wed...    ever and a day
  town...           be true


D|-0----------------0-----------------0-----|
A|-1----------------0-----------------0-----|
G|-4-few strokes----2-few strokes-----0-----| Back to Intro, then Chorus, then 
D|-0----------------3-----------------0-----| Intro, but only first time
A|-1----------------0-----------------0-----|
D|-0----------------0-----------------5-----|
   boy.....         gypsy heart....   last..





************************************

| /   slide up
| \   slide down
| h   hammer-on
| p   pull-off
| ~   vibrato
| +   harmonic
| x   Mute note
| b   Bend
| pb  Pre-bend
| br  Bend release
| pbr Pre-bend release
| brb Bend release bend

************************************
Tap to rate this tab
# A B C D E F G H I J K L M N O P Q R S T U V W X Y Z