Song name
# A B C D E F G H I J K L M N O P Q R S T U V W X Y Z

The Civil Wars - The Violet Hour Piano tab

-------------------------------------------------------------------------------
                  THE VIOLET HOUR (PIANO) - THE CIVIL WARS
-------------------------------------------------------------------------------
Tabbed by: jamuel24
E-mail:    jameelbrenneman@gmail.com

Tuning: Standard, Capo V

The guitar part has already been done by helicon2, and it is spot on.
There are a couple of parts where the piano and guitar play the same notes,
but this tab is specifically the piano part, because I like how that sounds, too.


Verse 1:
Chime:
e|--0--|-------2------0---0---------------------0-0-----3------------|
B|-----|-----1------1-------3-1-0-1-0-----1--3------3-1---0----------|
G|--2--|---2------2---------------------2--------------------2-------|
D|-----|-------------------------------------------------------------|
A|-----|-------------------------------------------------------------|
E|-----|-------------------------------------------------------------|

e|------2-----0---0---------------------0-0-----3--------------------|
B|----1-----1-------3-1-0-1-0-----1--3------3-1---0------------------|
G|--2-----2---------------------2--------------------2---------------|
D|-------------------------------------------------------------------|
A|-------------------------------------------------------------------|
E|-------------------------------------------------------------------|

Chorus:
e|---5--3---3-1-0-0---1--1-0-------0---------------------------------|
B|------------------3--------3-1-----3-1----0------------------------|
G|-------------------------------2-------2-----0---------------------|
D|-------------------------------------------------------------------|
A|-------------------------------------------------------------------|
E|-------------------------------------------------------------------|

e|-5--3---3-1-0-0--1--0--1-1-0-----------0---------------------------|
B|----------------3-----3--------3-3-1-----3-1--1-0------------------|
G|-------------------------------------2-------2---------------------|
D|-------------------------------------------------------------------|
A|-------------------------------------------------------------------|
E|-------------------------------------------------------------------|

Verse 2: note slight difference on second time
e|------2-----0---0---------------------0-0-----3--------------------|
B|----1-----1-------3-1-0-1-0-----1--3------3-1---0------------------|
G|--2-----2---------------------2--------------------2---------------|
D|-------------------------------------------------------------------|
A|-------------------------------------------------------------------|
E|-------------------------------------------------------------------|

e|---------2------0---0----------------------0-0-----3---------------|
B|-------1------1-------3-1-0-1-3-----1----3-----3-1---0-------------|
G|-----2------2----------------------2--2----------------2-----------|
D|-------------------------------------------------------------------|
A|-------------------------------------------------------------------|
E|-------------------------------------------------------------------|

Chorus 2:
e|---5-3--3-1-0-0--1--1-0-------0------------------------------------|
B|----------------3-------3-1-----3-1--1-0---0-1-3-1-----------------|
G|----------------------------2-------2----0-------------------------|
D|-------------------------------------------------------------------|
A|-------------------------------------------------------------------|
E|-------------------------------------------------------------------|

e|-5-3-3-1-0-0--1----0-1-0---------0---------------------------------|
B|-------------3---3-------3-3-1-----3-1--1-0------------------------|
G|-------------------------------2-------2---------------------------|
D|-------------------------------------------------------------------|
A|-------------------------------------------------------------------|
E|-------------------------------------------------------------------|


Outro/Bridge:
e|---4-5-1---4-5-1-3---4-5-1--4-5-1-0-3------------------------------|
B|-------------------------------------------------------------------|
G|-------------------------------------------------------------------|
D|-------------------------------------------------------------------|
A|-------------------------------------------------------------------|
E|-------------------------------------------------------------------|

Final Verse: (Same as Verse 1)

e|------2-------0--0------------------------0-0-----3----------------|
B|----1-------1-------3-1-0-1-0--------1--3-----3-1----0-------------|
G|-2-------2-------------------------2--------------------2----------|
D|-------------------------------------------------------------------|
A|-------------------------------------------------------------------|
E|-------------------------------------------------------------------|

Finish with Chime
Tap to rate this tab
 
# A B C D E F G H I J K L M N O P Q R S T U V W X Y Z