The Civil Wars - Dust To Dust tab

-------------------------------------------------------------------------------
                          Dust to Dust - The Civil Wars
-------------------------------------------------------------------------------

Tabbed by: William Bixler

Tuning: Standard
Palm mute throughout the song.

Intro
e|-------------------------------------------------|
B|-------------------------------------------------|
G|-------------------------------------------------|
D|------6---6---6---6---6---6---6---6--------------|    X 4
A|----4---4---4---4---4---4------------------------|
E|----------------------------4---4----------------|

Verse: (Play twice in a row the first time)
e|---------------------------------------------------------------------------|
B|---------------------------------------------------------------------------|
G|---------------------------------------------------------------------------|
D|------6---6---6---6---6---6---6---6----6---6---6---6---6---6---6---6-------|
A|----4---4---4---4---4---4------------4---4---4---4---4---4-----------------|
E|----------------------------4---4----------------------------4---4---------|

e|---------------------------------------------------------------------------|
B|---------------------------------------------------------------------------|
G|---------------------------------------------------------------------------|
D|------6---6---6---6---6---6---6---6---6---6---6---6---6---6---6---6--------|
A|---------------------------------------------------------------------------|
E|----6---6---6---6---6---6---4---4---6---6---6---6---6---6---4---4----------|

e|---------------------------------------------------------------------------|
B|---------------------------------------------------------------------------|
G|---------------------------------------------------------------------------|
D|------4---4---4---4---4---4---4---4----------------------------------------|
A|--------------------------------------6---6---6---6---6---6---6------------|
E|----2---2---2---2---2---2---2---2---4---4---4---4---4---4---4---4----------|

e|-------------------------------------------------|
B|-------------------------------------------------|
G|-------------------------------------------------|
D|------6---6---6---6---6---6---6---6--------------|    X 2
A|----4---4---4---4---4---4------------------------|
E|----------------------------4---4-------- -------|

Chorus:
e|--------------------------------------------------------------------------|
B|--------------------------------------------------------------------------|
G|--------------------------------------------------------------------------|
D|------4---4---4---4---4---4---4---4--/----8---8---8---8---8---8---8---8---|
A|--------------------------------------------------------------------------|
E|----2---2---2---2---2---2---2---2----/--6---6---6---6---6---6---6---6-----|

e|---------------------------------------------------------------------------|
B|---------------------------------------------------------------------------|
G|---------------------------------------------------------------------------|
D|---\---6---6---6---6---6---6---6---6--/----8---8---8---8---8---8---6---6---|
A|---------------------------------------------------------------------------|
E|---\-4---4---4---4---4---4---4---4----/--6---6---6---6---6---6---4---4-----|

e|-----------------------------------------------------------------------------|
B|-----------------------------------------------------------------------------|
G|-----------------------------------------------------------------------------|
D|---\-----4---4---4---4---4---4---4---4--/----8---8---8---8---8---8---8---8---|
A|-----------------------------------------------------------------------------|
E|----\--2---2---2---2---2---2---2---2----/--6---6---6---6---6---6---6---6-----|

e|-------------------------------------------------|
B|-------------------------------------------------|
G|-------------------------------------------------|
D|---\----6---6---6---6---6---6---6---6------------|
A|-------------------------------------------------|
E|---\--4---4---4---4---4---4---4---4---4----------|

(Play Verse Then Chorus)

Bridge:
    A#m       F#       C#     G#/C#
e|---1--------2--------4-------(4)-----|
B|---2--------2--------6-------(4)-----|
G|---3--------3--------6--------5------|
D|---3--------4--------6--------6------| X2
A|---1--------4--------4--------4------|
E|------------2------------------------|

Verse:
e|---------------------------------------------------------------------------|
B|---------------------------------------------------------------------------|
G|---------------------------------------------------------------------------|
D|------6---6---6---6---6---6---6---6---6---6---6---6---6---6---6---6--------|
A|----4---4---4---4---4---4-----------4---4---4---4---4---4------------------|
E|----------------------------4---4---------------------------4---4----------|

e|---------------------------------------------------------------------------|
B|---------------------------------------------------------------------------|
G|---------------------------------------------------------------------------|
D|------6---6---6---6---6---6---6---6---6---6---6---6---6---6---6---6--------|
A|---------------------------------------------------------------------------|
E|----6---6---6---6---6---6---4---4---6---6---6---6---6---6---4---4----------|

e|---------------------------------------------------------------------------|
B|---------------------------------------------------------------------------|
G|---------------------------------------------------------------------------|
D|------4---4---4---4---4---4---4---4----------------------------------------|
A|----------------------------------------6---6---6---6---6---6---6----------|
E|----2---2---2---2---2---2---2---2----4----4---4---4---4---4---4---4--------|

e|---------------------------------------------------------------------------|
B|---------------------------------------------------------------------------|
G|---------------------------------------------------------------------------|
D|------3---3---3---3---3---3---3---3---3---3---3---3---3---3---3------------|
A|----4---4---4---4---4---4--------------------------------------------------|
E|----------------------------4---4---1---1---1---1---1---1---1---1----------|

e|-------------------------------------------|
B|-------------------------------------------|
G|-------------------------------------------|
D|------0---0---0---0---0---0---0---0--------|
A|----4---4---4---4---4---4---4---4----------|
E|-------------------------------------------|

Outro:
e|-------------------------------------------------|
B|-------------------------------------------------|
G|-------------------------------------------------|
D|------6---6---6---6---6---6---6---6--------------|   X2
A|----4---4---4---4---4---4------------------------|
E|----------------------------4--4-----------------|

e|-------------------------------------------------|
B|-------------------------------------------------|
G|-------------------------------------------------|
D|------6---6---6---6---6---6---6---6--------------|
A|----4---4---4---4---4---4-----------4------------|
E|----------------------------4---4----------------|



************************************

| /   slide up
| \   slide down

************************************
Tap to rate this tab
 
# A B C D E F G H I J K L M N O P Q R S T U V W X Y Z