Song name
# A B C D E F G H I J K L M N O P Q R S T U V W X Y Z

The Clash - London Calling tab

London Calling --The Clash--

Tab by Brett (How2MakeGuitarRiffs)

FOR VIDEO LESSON, ENTER THIS URL BELOW
http://youtu.be/BJkvQR-UBAM

                 REPEAT X5
e |-------------------|---------------------|        
B |--8--8---8---8-----|---8---8---8---8-----|        
G |--9--9---9---9-----|---10--10--10--10----|  X5
D |--9--9---9---9-----|---10--10--10--10----|       
A |-------------------|---------------------|        
E |-------------------|---------------------|        


e |-------------------|---------------------|
B |-------------------|---------------------|
G |-12--12--12--12----|--12--12--12--12-----|
D |-------------------|---------------------|
A |-------------------|---------------------|
E |-------------------|---------------------|

e |---------------------|----------------------|---------------------|-x-x-7-7---x-x-7-7---|
B |------8-8---x-x-8-8--|-x-x-8--8---x-x-8--8--|-x-x-8-8--x-x-8-8----|-x-x-8-8---x-x-8-8---|
G |-12\--9-9---x-x-9-9--|-x-x-10-10--x-x-10-10-|-x-x-9-9--x-x-9-9----|-x-x-7-7---x-x-7-7---|
D |------9-9---x-x-9-9--|-x-x-10-10--x-x-10-10-|-x-x-9-9--x-x-9-9----|-x-x-9-9---x-x-9-9---|
A |---------------------|----------------------|---------------------|---------------------|
E |---------------------|----------------------|---------------------|---------------------|

e |---------------------|-----------------------|---------------------|-x-x-7-7---x-x-7-7---|
B |-x-x-8-8----x-x-8-8--|-x-x-8--8---x-x-8---8--|-x-x-8-8--x-x-8-8----|-x-x-8-8---x-x-8-8---|
G |-x-x-9-9----x-x-9-9--|-x-x-10-10--x-x-10--10-|-x-x-9-9--x-x-9-9----|-x-x-7-7---x-x-7-7---|
D |-x-x-9-9----x-x-9-9--|-x-x-10-10--x-x-10--10-|-x-x-9-9--x-x-9-9----|-x-x-9-9---x-x-9-9---|
A |---------------------|-----------------------|---------------------|---------------------|
E |---------------------|-----------------------|---------------------|---------------------|


      REPEAT FOLLOWING LINE X2                                                          (x2)
e |-------------------|-------------------------------|-----------------|---7---7---7---7---|
B |-8---8---8---8-----|--8---10-8---10-8---10-8---10--|-8---8---8---8---|---8---8---8---8---|
G |-9---9---9---9-----|--9------9------9------9-------|-9---9---9---9---|---7---7---7---7---| 
D |-9---9---9---9-----|--10-----10-----10-----10------|-9---9---9---9---|---9---9---9---9---|
A |-------------------|-------------------------------|-----------------|-------------------|
E |-------------------|-------------------------------|-----------------|-------------------|

      REPEAT FOLLOWING LINE X3
e |-----12-\----------|---------------------|        
B |-----12-\----8--8--|---12-12---12--10----|         
G |-----12-\----9--9--|---12-12---12--11----|  (x3)    
D |-----14-\----9--9--|-----------12--12----|        
A |-------------------|---------------------|         
E |-------------------|---------------------|        


e |-----12-\----------|---5--5---5---5----|---5--5---5---5----|
B |-----12-\-------8--|---7--7---7---7----|---7--7---7---7----|
G |-----12-\-------9--|---7--7---7---7----|---7--7---7---7----|
D |-----14-\-------9--|-------------------|-------------------|
A |-------------------|-------------------|-------------------|
E |-------------------|-------------------|-------------------|

       REPEAT FOLLOWING LINE X2
e |-----------------|-------------------|-----------------|---7-7------7-7---|
B |---8-8----8-8----|---8--8-----8---8--|---8-8----8-8----|---8-8------8-8---|
G |---9-9----9-9----|---10-10----10--10-|---9-9----9-9----|---7-7------7-7---| (x2)
D |---9-9----9-9----|---10-10----10--10-|---9-9----9-9----|---9-9------9-9---|
A |-----------------|-------------------|-----------------|------------------|
E |-----------------|-------------------|-----------------|------------------|

       REPEAT FOLLOWING LINE X2                                                     (x2)
e |-------------------|-------------------------------|-----------------|---7---7---7---7---|
B |-8---8---8---8-----|--8---10-8---10-8---10-8---10--|-8---8---8---8---|---8---8---8---8---|
G |-9---9---9---9-----|--9------9------9------9-------|-9---9---9---9---|---7---7---7---7---|
D |-9---9---9---9-----|--10-----10-----10-----10------|-9---9---9---9---|---9---9---9---9---|
A |-------------------|-------------------------------|-----------------|-------------------|
E |-------------------|-------------------------------|-----------------|-------------------|


     REPEAT FOLLOWING LINE X3
e |-----12-\----------|---------------------|           
B |-----12-\----8--8--|---12-12---12--10----|          
G |-----12-\----9--9--|---12-12---12--11----|  (x3)      
D |-----14-\----9--9--|-----------12--12----|            
A |-------------------|---------------------|               
E |-------------------|---------------------|              

e |-----12-\----------|---5--5---5---5----|---5--5---5---5----|
B |-----12-\-------8--|---7--7---7---7----|---7--7---7---7----|
G |-----12-\-------9--|---7--7---7---7----|---7--7---7---7----|
D |-----14-\-------9--|-------------------|-------------------|
A |-------------------|-------------------|-------------------|
E |-------------------|-------------------|-------------------|


       REPEAT FOLLOWING LINE X2
e |-----------------|-------------------|-----------------|---7-7------7-7---|
B |---8-8----8-8----|---8--8-----8---8--|---8-8----8-8----|---8-8------8-8---|
G |---9-9----9-9----|---10-10----10--10-|---9-9----9-9----|---7-7------7-7---| (x2)
D |---9-9----9-9----|---10-10----10--10-|---9-9----9-9----|---9-9------9-9---|
A |-----------------|-------------------|-----------------|------------------|
E |-----------------|-------------------|-----------------|------------------|


                REPEAT FOLLOWING LINE X2                                              (X2)
e |-------------------|-------------------------------|-----------------|---7---7---7---7---|
B |-8---8---8---8-----|--8---10-8---10-8---10-8---10--|-8---8---8---8---|---8---8---8---8---|
G |-9---9---9---9-----|--9------9------9------9-------|-9---9---9---9---|---7---7---7---7---|
D |-9---9---9---9-----|--10-----10-----10-----10------|-9---9---9---9---|---9---9---9---9---|
A |-------------------|-------------------------------|-----------------|-------------------|
E |-------------------|-------------------------------|-----------------|-------------------|

         
           REPEAT FOLLOWING LINE X3
e |-----12-\----------|---------------------|           
B |-----12-\----8--8--|---12-12---12--10----|          
G |-----12-\----9--9--|---12-12---12--11----|  (x3)      
D |-----14-\----9--9--|-----------12--12----|           
A |-------------------|---------------------|               
E |-------------------|---------------------|            

e |-----12-\----------|---5--5---5---5----|---5--5---5---5----|
B |-----12-\-------8--|---7--7---7---7----|---7--7---7---7----|
G |-----12-\-------9--|---7--7---7---7----|---7--7---7---7----|
D |-----14-\-------9--|-------------------|-------------------|
A |-------------------|-------------------|-------------------|
E |-------------------|-------------------|-------------------|

        REPEAT X10
e |-------------------|---------------------|        e |--7----|
B |--8--8---8---8-----|---8---8---8---8-----|        B |--8----|
G |--9--9---9---9-----|---9---9---9---9-----|  (x10) G |--9----|
D |--9--9---9---9-----|---10--10--10--10----|        D |--9----|
A |-------------------|---------------------|        A |-------|
E |-------------------|---------------------|        E |-------|
Tap to rate this tab
 
# A B C D E F G H I J K L M N O P Q R S T U V W X Y Z