Guitaretab - guitar tabs
Song name
# A B C D E F G H I J K L M N O P Q R S T U V W X Y Z

The Clash - I Fought The Law tab

-------------------------------------------------------------------------------
			     I FOUGHT THE LAW  Green Day
-------------------------------------------------------------------------------
Tabbed by: Thedboy

Tuning: Standard

| /  slide up
| \  slide down
| h  hammer-on
| p  pull-off
| ~  vibrato
| +  harmonic
| x  Mute note



Intro (x2)
Billie Joe 
e------------------------------------------------------------------------------------|
B------------------------------------------------------------------------------------|
G-10-1010-10-1010---------------10-1010-10-1010--------10----------------------------|
D-10-1010-10-1010--8-88-10-1010-10-1010-10-1010-10-8-7-10----------------------------|
A-8--8-8--8--8-8---8-88-10-1010-8--8-8--8--8-8--10-8-7-8-----------------------------|
E------------------6-66-8-8-8------------------8--6-5-------------------------------|
    
Jason White
e---------------------------------------------------------------------------|
B11~--1111-11--1111-11--1111-11--1111-11--1111-11--1111-13-11-10-----------|
G-13b~------13b~-----13b~-----13b~-----13b~-----13b~--------------10--------|
D---------------------------------------------------------------------------|
A---------------------------------------------------------------------------|
E---------------------------------------------------------------------------|
  

Verse (x4)

 Billie Joe
e|---------------------------------------------------------------------------|
B|---------------------------------------------------------------------------|
G|-10101010------10101010----------------------------------------------------|
D|-10101010-8888-10101010-10101010-------------------------------------------|
A|-8-8-8-8--8888-8-8-8-8--10101010-------------------------------------------|
E|----------6666----------8-8-8-8--------------------------------------------|
   * * * *  **** * * * *  * * * *

e----xx----xxxx------------------------------------------------------------|
B----xx----xxxx------------------------------------------------------------|
G-10-xx-10-xxxx-10-10------------------------------------------------------| 
D-10-xx-10-xxxx-10-10------------------------------------------------------|
A-8--xx-8--xxxx-8--8-------------------------------------------------------|
E----xx----xxxx------------------------------------------------------------|
  
Chorus
[ Tab from: http://www.guitaretab.com/t/the-clash/3563.html ]
Billie Joe
   I miss my baby and I feel so sad, I guess my race is run
e|----------------------------------------------------------------------------|
B|----------------------------------------------------------------------------|
G|----------------------------------10----------------------------------------|
D|-8--------------------------------10----------------------------------------|
A|-8--------------------------------8-----------------------------------------|
E|-6--------------------------------------------------------------------------|
   
   Shes the best girl that Ive ever had I fought the law and the law one 
e|-------------------------------------------xx----xxxx----------------------|
B|-------------------------------------------xx----xxxx----------------------|
G|----------------------------------------10-xx-10-xxxx-10-10----------------|
D|-8--------------------------------------10-xx-10-xxxx-10-10----------------|
A|-8--------------------------------------8--xx-8--xxxx-8--8-----------------|
E|-6-----------------------------------------xx----xxxx----------------------|
                                          
    I fought the law and the 
e|------xx---xxxx------------------------------------------------------------|
B|------xx---xxxx------------------------------------------------------------|
G|---10-xx-10xxxx--------10--------------------------------------------------|
D|---10-xx-10xxxx-10-8-7-10--------------------------------------------------|
A|---8--xx-8-xxxx-10-8-7-8---------------------------------------------------|
E|------xx---xxxx-8--6-5-----------------------------------------------------|

Jason White:
e|-8~-88-------8~-88--------5~--8~-88--------8~-88---------------------------|
B|-------6~-66-------6~-66------------6~-66--------6~-66---------------------|
G|--------------------------------------------------------------10-----------|
D|-------------------------------------------------------10-8-7-10-----------|
A|-------------------------------------------------------10-8-7-8------------|
E|-------------------------------------------------------8--6-5--------------|

Solo:
Ive no clue what Jason White Plays, but billie plays the chorus behind it (four times)

End the song on: (both guitars)
e|----------------------------------------------------------------------------|
B|----------------------------------------------------------------------------|
G|--------10s-----------------------------------------------------------------|
D|-10-8-7-10s-----------------------------------------------------------------|
A|-10-8-7-8s------------------------------------------------------------------|
E|-8--6-5---------------------------------------------------------------------|
===============================================================================

Related for I Fought The Law tab