Guitaretab - guitar tabs
Song name
# A B C D E F G H I J K L M N O P Q R S T U V W X Y Z

The Clash - Somebody Got Murdered tab

SOMEBODY GOT MURDERED - THE CLASH
       TABBED BY JAMES M
intro
E--5-4---7--5--4--------------------------------------------5-4---7-5-4-|
B------5---------5-----5-----------------------------5----------5-------|
G------------------4-6---(hold note for 5 beats)-4-6---4-6-4------------|
D-----------------------------------------------------------------------|
A-----------------------------------------------------------------------|
e-----------------------------------------------------------------------|
[ Tab from: http://www.guitaretab.com/t/the-clash/3573.html ]
E---------------5-4---7-5-4---------------------------------------------------|
B-5-----5-----------5-------5-------5-------5-(hold for 2 beats)-------5-77-5-|
G---4-6---4-6-6---------------4-6-4---4-6-4----------------------4-6-4--------|
D-----------------------------------------------------------------------------|
A-----------------------------------------------------------------------------|
e-----------------------------------------------------------------------------|

E-5---------------------4-5-4---5-4---7-5-4---------------5-4---7-5-4---------|
B---5-5-5-5------5-77-5-------5-----5-------5-----5-----5-----5-------5-----5-|
G-----------4-6-------------------------------4-6---4-6-----------------4-6---|
D-----------------------------------------------------------------------------|
A-----------------------------------------------------------------------------|
e-----------------------------------------------------------------------------|

E------------------|
B-------5-----5----|      then the cords come in.
G-4-6-4---4-4------|
D------------------|       rock on.
A------------------|
e------------------|
Related for Somebody Got Murdered tab
Advertisement will be closed in 10 seconds