Song name
# A B C D E F G H I J K L M N O P Q R S T U V W X Y Z

The Clash - London Calling tab

-------------------------------------------------------------------------------
                             London Calling - The Clash
-------------------------------------------------------------------------------
Tabbed by: TreyTaylor
E-mail: treyt1997@gmail.com

Tuning: Standard Tuning

Introduction:

e|---------------------| *note: The two "--" represents one gap, but because of 
B|-8-8-8-8-8---8--8--8-| the ten I had to use two to make it clear.
G|-9-9-9-9-9---9--9--9-| Play so many times.
D|-9-9-9-9-10-10-10-10-|
A|-7-7-7-7-7---7--7--7-|
E|---------------------|

Verses:

e|------------------|
B|------1-111/3-333-| 
G|-0-0002-222/4-444-| Play so many times. (Each verse has different lengths)
D|-2-2223-333/5-555-|
A|-2-2223-333/5-555-|
E|-0-000------------|

Chorus:

e|-------3-333-------3-333-------3-333-------2-2222222-|
B|-------3-333-------3-333-------3-333-------3-3333333-|
G|-0-000-0-000-0-000-0-000-0-000-0-000-0-000-2-2222222-|
D|-2-222-0-000-2-222-0-000-2-222-0-000-2-222-----------|
A|-2-222-2-222-2-222-2-222-2-222-2-222-2-222-----------|
E|-0-000-3-333-0-000-3-333-0-000-3-333-0-000-----------|

Outro

e|-------3-333-------3-333-------3--------------------|
B|-------3-333-------3-333-------3---/------------\---|
G|-0-000-0-000-0-000-0-000-0-000-0---|    Hold    |---|
D|-2-222-0-000-2-222-0-000-2-222-0---|   The Last |---|
A|-2-222-2-222-2-222-2-222-2-222-2---|    Note    |---|
E|-0-000-3-333-0-000-3-333-0-000-3---\------------/---|

structure:

Introduction
Verse 
Chorus
Verse
Chorus
intorduction
Chorus
Intorduciotn
Verse
Outro
************************************

| /   slide up
| \   slide down
| h   hammer-on
| p   pull-off
| ~   vibrato
| +   harmonic
| x   Mute note
| b   Bend
| pb  Pre-bend
| br  Bend release
| pbr Pre-bend release
| brb Bend release bend

************************************
Tap to rate this tab
# A B C D E F G H I J K L M N O P Q R S T U V W X Y Z