Song name
# A B C D E F G H I J K L M N O P Q R S T U V W X Y Z

The Clash - Rock The Casbah tab

Tuning: EADGBE
Song sounds best on a clean amp setting with little to no drive.

This is the piano you can hear in the beginning, it doesn't sound quite right but there's
no need to learn this part.
e|------------------------------------------10--------------------10---------|
B|-----------------------------------10-13-----10\8--------10-13-----10\8----|
G|---------10-12-12b 10----10-----------------------10-12-----------------10-|
D|--10h12---------------12----12---------------------------------------------|
A|---------------------------------------------------------------------------|
E|---------------------------------------------------------------------------|


Chorus:
     Dmin7     Amin7  Gmaj Emin7 Fmaj7  Amin7
e|-5--5--5--5--5--5--3--3-3--7---8---7---5-----------------------------------|
B|-6--6--6--6-----0-----0-0--8---10--8---5-----------------------------------|
G|-5--5--5--5-----5-----5-5--7---9---7---5------REPEAT ONCE------------------|
D|-7--7--7--7-----5-----4-4--9---10--9---0-----------------------------------|
A|-5--5--5--5-----5-----3-3--7---8---7---5-----------------------------------|
E|----------------5-----0-0--------------------------------------------------|

Verse:
   Amin7    Emin7     Gmaj        Dmin7
e|--0---------0----------3----------1----------------------------------------|
B|--1---------0----------3----------1----------------------------------------|
G|--0---------0----------0----------2---------REAPEAT THREE TIMES------------|
D|--2---------0----------0----------0----------------------------------------|
A|--0---------2----------2---------------------------------------------------|
E|------------0----------3---------------------------------------------------|

Pre Chorus: Played once after the verse has been repeated three times, then go into the chorus
  Amin7     Emin7       Fmaj
e|-0----------0-----------1--------------------------------------------------|
B|-1----------0-----------1--------------------------------------------------|
G|-0----------0-----------2------TO CHORUS-----------------------------------|
D|-2----------0-----------3--------------------------------------------------|
A|-0----------2-----------3--------------------------------------------------|
E|------------0-----------1--------------------------------------------------|

Song format:
Chorus (with piano bit)
Verse
Pre-Chorus
Chorus
verse
pre-chorus
Chorus
verse
pre-chorus
chorus
chorus
chorus
Tap to rate this tab
# A B C D E F G H I J K L M N O P Q R S T U V W X Y Z