Song name
# A B C D E F G H I J K L M N O P Q R S T U V W X Y Z

The Classic Crime - When The Time Comes tab

----------------------------------------------------------------------------
		 WHEN THE TIME COMES - THE CLASSIC CRIME
----------------------------------------------------------------------------Tabbed by: linds4lif
Email: ruic707@yahoo.com

Tuning: Eb
(pluck with fingers)
eb|--------------------------------------------------------------------|
Bb|----1--1--1--1--1---1--1--1--1--1---0--0--0--0--0---0--0--0--0--0---|
Gb|--------------------------------------------------------------------|
Db|---2--2--2--2--2---2--2--2--2--2------------------------------------| x2
Ab|--3--3--3--3--3---0--0--0--0--0----2--2--2--2--2---2--2--2--2--2----|
Eb|----------------------------------3--3--3--3--3---3--3--3--3--3-----|


eb|--------------------------------------------------------------------|
Bb|-----1--1--1--1--1---1--1--1--1--1---0--0--0--0--0---0--0--3--1--0h1|
Gb|--------------------------------------------------------------------|
Db|----2--2--2--2--2---2--2--2--2--2-----------------------------------|
Ab|---3--3--3--3--3---0--0--0--0--0----2--2--2--2--2---2--2--2--2--2---|
Eb|-----------------------------------3--3--3--3--3---3--3--3--3--3----|

Chords:
 
Am  Em    (strum along with song to get rythm)


eb|--------------------------------------------------------------------|
Bb|-----1--1--1--1--1---1--1--1--1--1---0--0--0--0--0---0--0--3--1--0h1|
Gb|--------------------------------------------------------------------|
Db|----2--2--2--2--2---2--2--2--2--2-----------------------------------|
Ab|---3--3--3--3--3---0--0--0--0--0----2--2--2--2--2---2--2--2--2--2---|
Eb|-----------------------------------3--3--3--3--3---3--3--3--3--3----|

eb|-----------------3---------------------------------------------------|
Bb|-----1--1--3--1------1--1--3--1--0---0--0--3--1--0---0--0--3--1--0h1|
Gb|--------------------------------------------------------------------|
Db|----2--2--2--2--2---2--2--2--2--2-----------------------------------|
Ab|---3--3--3--3--3---0--0--0--0--0----2--2--2--2--2---2--2--2--2--2---|
Eb|-----------------------------------3--3--3--3--3---3--3--3--3--3----|

Chords:

use Em, Am, and C chords as needed (listen to song)


eb|-----------------3---------------------------------------------------0-|
Bb|-----1--1--3--1------1--1--3--1--0---0--0--3--1--0---0--0--3--1--0h1-1-|
Gb|---------------------------------------------------------------------0-|
Db|----2--2--2--2--2---2--2--2--2--2------------------------------------2-|
Ab|---3--3--3--3--3---0--0--0--0--0----2--2--2--2--2---2--2--2--2--2----3-|
Eb|-----------------------------------3--3--3--3--3---3--3--3--3--3-----x-|

| h  hammer-on
| x  Mute note


Well, that is it...I think i got it about 93% coorect. Comments and corections welcome! ENJOY :)!
 
Tap to rate this tab
# A B C D E F G H I J K L M N O P Q R S T U V W X Y Z