Song name
# A B C D E F G H I J K L M N O P Q R S T U V W X Y Z

The Classic Crime - The Weapon Of Choice tab

Help us improve GuitareTab! Take a short survey!
-------------------------------------------------------------------------------
			     weapon of choice - classic crime
-------------------------------------------------------------------------------
Tabbed by: thetroy
Tuning: drop d

intro
e|---------------------------------------------------------------------------|
B|---------------------------------------------------------------------------|
G|-5-555-555-555-555-555-555-555-555-----------------------------------------|
D|-7-777-777-777-777-555-555-555-555-/-8---10-------\-3---5------/8---10-----|
A|-5-555-555-555-555-333-333-333-333-/-8------8---8-\-3-----3---3/8----------|
E|-----------------------------------/-8-8------8---\-3-3-----3--/8-8--------|

e|---------------------------------------------------------------------------|
B|---------------------------------------------------------------------------|
G|---------------------------------------------------------------------------|
D|------\3---5---------------------------------------------------------------|
A|-8---8\3-----3p2p0---------------------------------------------------------|
E|---8--\3-3---3p2p0---------------------------------------------------------|

verse
e|---------------------------------------------------------------------------|
B|---------------------------------------------------------------------------|
G|-----5~------5~-------5~------5~-------------------------------------------|
D|---7~------5~-------2~------3~---------------------------------------------|
A|-5~------3~-------0~------1~-----------------------------------------------|
E|---------------------------------------------------------------------------|

pre-chorus X2 (the second time's strum pattern is different but not hard to figure out)
e|---------------------------------------------------------------------------|
B|---------------------------------------------------------------------------|
G|---------------------------------------------------------------------------|
D|-5555555555555555----------------------------------------------------------|
A|-3333333333333333-5555555555555555-8888888888888888-3333333333333333-------|
E|------------------5555555555555555-8888888888888888-3333333333333333-------|

chorus (those are tens)
e|---------------------------------------------------------------------------|
B|---------------------------------------------------------------------------|
G|-5-555-555-555-555-555-555-555-555-----------------------------------------|
D|-7-777-777-777-777-555-555-555-555-101010-101010-101010-101010-------------|
A|-5-555-555-555-555-333-333-333-333-8-8-8--8-8-8--8-8-8--8-8-8--------------|
E|-----------------------------------8-8-8--8-8-8--8-8-8--8-8-8--------------|

e|---------------------------------------------------------------------------|
B|---------------------------------------------------------------------------|
G|---------------------------------------------------------------------------|
D|-555-555-555-555-----------------------------------------------------------|
A|-333-333-333-333-----------------------------------------------------------|
E|-333-333-333-333-----------------------------------------------------------|

repeat verse

repeat chorus

bridge
e|---------------------------------------------------------------------------|
B|---------------------------------------------------------------------------|
G|----------4-4--------------------------------------------------------------|
D|----------3-3--------------------------------------------------------------|
A|-3h5--3h5------------------------------------------------------------------|
E|-0-0--0-0------------------------------------------------------------------|

bridge pt 2 (just the chorus going once with no distortion)

play chorus

then intro

end

| /  slide up
| \  slide down
| h  hammer-on
| p  pull-off
| ~  vibrato
| +  harmonic
| x  Mute note
===============================================================================
Related for The Weapon Of Choice tab