Song name
# A B C D E F G H I J K L M N O P Q R S T U V W X Y Z

The Classic Crime - Warrior Poet tab

-------------------------------------------------------------------------------
			     warrior poet - the classic crime
-------------------------------------------------------------------------------
Tabbed by: thetroy (duh!)
Tuning: drop Db or drop C# (same difference)

intro X4
e|-5-5-5-5-5-----------------------------------------------------------------|
B|-5-5-5-6-5-----------------------------------------------------------------|
G|-7-7-7-7-7-----------------------------------------------------------------|
D|-7-7-7-7-7-----------------------------------------------------------------|
A|-5-5-5-5-5-----------------------------------------------------------------|
E|---------------------------------------------------------------------------|

pre - verse
e|---------------------------------------------------------------------------|
B|---------------------------------------------------------------------------|
G|---------------------------------------------------------------------------|
D|-7-7-7-7-7-7-3-3-3-3-3-3-0-0-0-0-0-0-3-3-3-3-3-3---------------------------|
A|-7-7-7-7-7-7-3-3-3-3-3-3-0-0-0-0-0-0-3-3-3-3-3-3---------------------------|
E|-7-7-7-7-7-7-3-3-3-3-3-3-0-0-0-0-0-0-3-3-3-3-3-3---------------------------|

verse (i dont know guitar 2's part)
e|---------------------------------------------------------------------------|
B|---------------------------------------------------------------------------|
G|---------------------------------------------------------------------------|
D|-7-7-7-7-7-7-3-3-3-3-3-3-5-5-5-5-5-5-0-0-0-0-0-0---------------------------|
A|-7-7-7-7-7-7-3-3-3-3-3-3-5-5-5-5-5-5-0-0-0-0-0-0---------------------------|
E|-7-7-7-7-7-7-3-3-3-3-3-3-5-5-5-5-5-5-0-0-0-0-0-0---------------------------|

pre chorus (intro)

chorus (same as pre - verse)

intro

verse

pre - chorus

chorus

bridge pt 1  X4
e|---------------------------------------------------------------------------|
B|---------------------------------------------------------------------------|
G|---------------------------------------------------------------------------|
D|-10-10-10-10-10-10-10-10-10-10-10-10--8-8-8-8-8-8-8-8-8-8-8-8--------------|
A|-8--8--8--8--8--8--8--8--8--8--8--8---8-8-8-8-8-8-8-8-8-8-8-8--------------|
E|--------------------------------------8-8-8-8-8-8-8-8-8-8-8-8--------------|

bridge pt 2  X4
e|---------------------------------------------------------------------------|
B|---------------------------------------------------------------------------|
G|---------------------------------------------------------------------------|
D|-8-8-8-8-8-8-10-10-10-10-10-10-0-0-0-0-0-0-3-3-3-3-3-3---------------------|
A|-8-8-8-8-8-8-10-10-10-10-10-10-0-0-0-0-0-0-3-3-3-3-3-3---------------------|
E|-8-8-8-8-8-8-10-10-10-10-10-10-0-0-0-0-0-0-3-3-3-3-3-3---------------------|

play intro

play chorus

END

| /  slide up
| \  slide down
| h  hammer-on
| p  pull-off
| ~  vibrato
| +  harmonic
| x  Mute note
===============================================================================
Tap to rate this tab
# A B C D E F G H I J K L M N O P Q R S T U V W X Y Z