Song name
# A B C D E F G H I J K L M N O P Q R S T U V W X Y Z

The Classic Crime - Blindfolded tab

standard tuning (Eadgbe)

done on an electric guitar with a little distortion. it sounds good on acoustic too though.

the timing may be a little tricky to get at first, but the tabs are right.

h= hammer on

E|---4--4---4--4--9--9---9--9----|
a|-------------------------------|
d|----6--6---6--6--11-11--11-11--|
g|----4--4---4--4--9--9---9--9---|
b|-------------------------------|
e|-------------------------------|

E|---2--2---2--2--7--7---6--0h2--|
a|-------------------------------|
d|----4--4---4--4--9--9---7------|
g|----3--3---3--3--8--8---6------|
b|-------------------------------|
e|-------------------------------|

    I transcend time....
E|---4--4---4--4--9--9---9--9----|
a|-------------------------------|
d|----6--6---6--6--11-11--11-11--|
g|----4--4---4--4--9--9---9--9---|
b|-------------------------------|
e|-------------------------------|

    And we will live there....
E|---2--2---2--2--7--7---6--6----|
a|-------------------------------|
d|----4--4---4--4--9--9---7--7---|
g|----3--3---3--3--8--8---6--6---|
b|-------------------------------|
e|-------------------------------|

I'm not 100% sure how the chords go, but i think it's something along the lines of 
B, G#m, A#m, E (played as a bar chord on the 12th fret.)

so ya. keep rocking the jamz, my friend. enjoy!
Tap to rate this tab
 
# A B C D E F G H I J K L M N O P Q R S T U V W X Y Z