Song name
# A B C D E F G H I J K L M N O P Q R S T U V W X Y Z

The Classic Crime - Salt In The Snow tab

The Classic Crime - Salt in the Snow
Tabbed by - Blake Wilson
All half step down


Intro
----------------------------------------------------------------|
----------------------------------------------------------------|
----------7---7---7----6---6---6----4---4---4----2---2---2------|
------------0---0---0----0---0---0----0---0---0----0---0---0----| x3
----------------------------------------------------------------|
----------------------------------------------------------------|


       |--------------------------------------------------------|
       |--------------------------------------------------------|
       |---------------2---2---2----4---4---4---6---6---6-------|
       |--4---4---4------0---0---0----0---0---0---0---0---0-----|
       |----5---5---5-------------------------------------------|
       |--------------------------------------------------------|

The other Guitar (and drums) join in here

----------------------------------------------------------------|
----------------------------------------------------------------|
----------7---7---7----6---6---6----4---4---4----2---2---2------|
------------0---0---0----0---0---0----0---0---0----0---0---0----| x3
----------------------------------------------------------------|
----------------------------------------------------------------|

                                                             ^
  |--------------------------------------------------------|----|
  |--------------------------------------------------------|----|
  |---------------2---2---2----4---4---4---6---6---6-------|-7--|
  |--4---4---4------0---0---0----0---0---0---0---0---0-----|-5--|
  |----5---5---5-------------------------------------------|-5--|
  |--------------------------------------------------------|----|

Give me wings, give me peace...

Good luck with the rest, this is all I could come up with :)

^=Accent (Hit what's below it harder than normal) 
Tap to rate this tab
# A B C D E F G H I J K L M N O P Q R S T U V W X Y Z