Song name
# A B C D E F G H I J K L M N O P Q R S T U V W X Y Z

The Classic Crime - 5805 tab

Band:  The Classic Crime.
Song: 5805.
Tuning:  Drop C# (C#, G#, C#, F#, A#, D#)
Tabber:  SorryImAwesome.

Intro:
Guitar #2 (Lead):
D#|------------------------|
A#|-7~---------------5h6h7-|
F#|----7~-6~-5h6h7h8-------|
C#|------------------------|
G#|------------------------|
C#|------------------------|

Verse (2x):
Guitar #1 (Rhythm):
D#|-------------|        |----------------------|
A#|-------------|        |----------------------|
F#|-6-----------|        |----------------------|
C#|-4-7-6-----4-|        |-----7----7----7----7-|
G#|---5-4---4---|        |---5----5----5----5---|
C#|-------4-----|2x, then|-5----5----5----5-----|

Guitar #2 (Lead):
D#|-----|                |----------------------|
A#|-----|                |----------------------|
F#|-6-6-|                |----------------------|
C#|-7-7-|                |-----7----7----7----7-|
G#|-----|                |---5----5----5----5---|
C#|-----|8x, then        |-5----5----5----5-----|

Pre-Chorus:
Guitar #1 and #2:
D#|----------------------|
A#|----------------------|
F#|----------------------|
C#|-0------2------4------|
G#|-0(24x)-2(12x)-4(12x)-|
C#|-0------2------4------|2x
PM: *      *      *

Chorus:
Guitar #1 (Rhythm):
D#|-----------------------------------|
A#|-----------------------------------|
F#|-----------------------------------|
C#|-7------0------2-----4------5------|
G#|-7(12x)-0(10x)-2(2x)-4(12x)-5(12x)-|
C#|-7------0------2-----4------5------|

Guitar #2 (Lead):
D#|-12----12----12----10----10-9----9-|        |-7----7-9----9-10----10----10----|
A#|----10----10----10----10------10---|        |---10-----10------10----10----10-|
F#|-----------------------------------|        |---------------------------------|
C#|-----------------------------------|        |---------------------------------|
G#|-----------------------------------|        |---------------------------------|
C#|-----------------------------------|3x, then|---------------------------------|

Then play Intro, Verse, then Chorus(2x).

Bridge (I tried to line up the guitars 'cause this part's a bit tricky):
Guitar #1 (Rhythm):
D#|---------------------------------------------------------------------------|
A#|---------------------------------------------------------------------------|
F#|---------------------------------------------------------------------------|
C#|-0--------0--------0---------2-2-2--2-4--------4--------4---------7-7-7--7-|
G#|-0--------0--------0---------2-2-2--2-4--------4--------4---------7-7-7--7-|
C#|-0--------0--------0---------2-2-2--2-4--------4--------4---------7-7-7--7-|2x
On the 2nd time, let the last chord ring.

Guitar #2 (Lead):
D#|---------------------------------------------------------------------------|
A#|---------------------------------------------------------------------------|
F#|---------------------------------------------------------------------------|
C#|---------------------------------------------------------------------------|
G#|--/5-4-2-0--5-4-2-0--5-4-2-0-7-7-7--7---5-4-2-0--5-4-2-0--5-4-2-0-7-7-7--7-|
C#|---------------------------------------------------------------------------|2x

Repeat Chorus (2x), then:
Ending (There's a special strum here, so I'll tab it out):
Guitar #1 (Rhythm):
D#|-------------------------------------------------------------------|
A#|-------------------------------------------------------------------|
F#|-------------------------------------------------------------------|
C#|-0-0-0--0-0-0-0--0-0-0-0--0-2-2-2-4-4-4--4-4-4-4--4-4-4-4--4-7-7-7-|
G#|-0-0-0--0-0-0-0--0-0-0-0--0-2-2-2-4-4-4--4-4-4-4--4-4-4-4--4-7-7-7-|
C#|-0-0-0--0-0-0-0--0-0-0-0--0-2-2-2-4-4-4--4-4-4-4--4-4-4-4--4-7-7-7-|

Guitar #2 (Lead):
Repeat the Chorus.

End on:
Guitar #1 and #2:
D#|----|
A#|----|
F#|-0~-|
C#|-0~-|
G#|-0~-|
C#|----|
Tap to rate this tab
 
# A B C D E F G H I J K L M N O P Q R S T U V W X Y Z