Song name
# A B C D E F G H I J K L M N O P Q R S T U V W X Y Z

The Classic Crime - The Ascent tab

|-----------------|------------------|
|-------------14--|------------------|
|--8-10-11-13-----|--8-10-11-13--6---|
|-------------11--|------------------|
|--6-8--9--11-----|--6-8--9--11--4---|
|-----------------|------------------|



|----------------------------------------------------------|
|--4-4-4-4-4-4-4-4-6-6-6-6-6-6-7-7-7-7-7-7-7-7-9-9-9-9-9-9-|
|----------------------------------------------------------|
|----------------------------------------------------------|
|----------------------------------------------------------|
|----------------------------------------------------------|



|-------9---------9---------9---------9------11-11-13-13-14-14-13-13-|
|--9-11---11-9-11---11-9-11---11-9-11---11---------------------------|
|--------------------------------------------------------------------|
|--------------------------------------------------------------------|
|--------------------------------------------------------------------|
|--------------------------------------------------------------------|
Tap to rate this tab
# A B C D E F G H I J K L M N O P Q R S T U V W X Y Z