Song name
# A B C D E F G H I J K L M N O P Q R S T U V W X Y Z

The Classic Crime - Vagabonds Acoustic chords

Highlighted       Show chord diagrams
http://www.youtube.com/watch?v=XBzIdv_8jm0

I loved this song so much i had to tab it out, first one done by ear. Also 
check out the pre order for The Classic Crime's new album 'Vagabonds' 
coming out on April the 6th, all profit from the preorder is going to help 
Haiti. Song is tuned 1/2 step down, enjoy!

Vagabonds
By The Classic Crime
off of the upcoming album 'Vagabonds'
Transcribed by D.I.R.T.

Intro Rift x3

Verse 1 (see bottom for verse rift)

I cant get enough/of living in the city/I get off the bus/at Dexters and 
Denny/ the suns coming up/ over the lake to my east/ and I feel the love/ 
in the rhythm of music of the street air. 

Pre Chorus 1

C#m                  E                  A2
And no one is gonna take that away from me
C#m                    E                            A2                      
So I pick up a real change paper as I walk on down the street
A2        B
Yeah because

Chorus

C#m           E           A                  B
Vagabonds and troubadours/Built this city on punk rock chords/ 

C#m            E               A        B
and I for one cannot ignore the facts, yeahahahha

C#m              E             A   B      C#m              E          A
So we will make music till no one refuses/we will take our airwaves back, 
B
yeahah, comon

Intro Rift

Verse 2 (same thing as verse one, second guitar is playing octives)

In the jet city of love/ northwest in the evergreen state/people cant get 
enough/ of living in the darkness and the rain/ but when the sun comes 
out/the streets are filled with songs/ and people playing it loud/ so the 
whole world can sing along/ yeah 

Pre Chorus 2

C#m             E                  A2
And the cops go screamin by on the 99
C#m                  E                    A2
Theres a man with a smile and his guitar on and hes holdin a sign
A2       B
and it says

Chorus

Intro Rift

Solo (only use e and B strings, i use both at the same time, playing one 
open as a drone while doing the solo on the one needed)

eb|-------------------------------------------------------|
Bb|-12-10h12-9h10-7h9-5h7-7p5p0-0--x4---------------------|
Gb|-------------------------------------------------------|

eb|-12-11h12-9h11-7h9p0--12-11h12-9h11-7h9-5h7-4h5p4p0-0--|
Bb|-------------------------------------------------------|
Gb|-------------------------------------------------------|

eb|-12-11h12-9h11-7h9-5h7-4h5-5p4-5p4-5p4-5p4p0-0---------|
Bb|-------------------------------------------------------|
Gb|-------------------------------------------------------|

Chorus
+ We will make music till no one refuses  -we will take our air waves back 
yeahah comon-

Outro is intro rift x2

and there you go, please comment and rate!



Intro Rift

Db-----------------------------------------------|
Ab---------11-------11---------------11----------|
Eb-0-11h12----12-11----12----0-11h12----12-11-12-|


Verse Rift
Db---------11-------11-------------------------------|
Ab---11h12----12-11----12------------11--------------|
Eb-0-------------------------0-11h12----12-11-12-----|

The verse is Intro Rift X1 then the Verse Rift X1

Between each not relax your fingers to mute the strings


Chords

_____E________B_______A_______A2_______C#m___________B_
eb|--x--------x-------x-------0---------x------------x-|
Bb|--x--------x-------x-------0--------(5) optional--x-|
Gb|--9--------8-------6-------2---------6------------4-|
Db|--9--------9-------7-------2---------6------------4-|
Ab|--7--------9-------7-------0---------4------------2-|
Eb|--x--------7-------5-------0---------x------------x-|

Use the last B shape when sliding out from the A2 at the end of the 
prechorus. Just use your pinky and ring finger for the A2 and slide to B, 
putting you pointer on the A string

Tap to rate this tab
 
# A B C D E F G H I J K L M N O P Q R S T U V W X Y Z