Song name
# A B C D E F G H I J K L M N O P Q R S T U V W X Y Z

The Classic Crime - The Ascent tab

This song is in drop Db.

The beginning of the song i didnt figure out but this is what i got after it.



Only do the second part on the second time.

Guitar 1 intro
eb|---------------------------------|-----------------------------|
Bb|---------------------------------|-----------------------------|
Gb|---------------------------------|-----------------------------|
db|--------------------------11b13--|-----------------------------| 
Ab|--6b8---8b10--9b11--11b13--------|--6b8--8b10--9b11--11b13--4~-|
Db|---------------------------------|-----------------------------|  

eb|-----------------------------|
Bb|-----------------------------|
Gb|-----------------------------|
db|-----------------------------| 
Ab|--6b8--8b10--9b11--11b13--4~-|
Db|-----------------------------| 
Guitar 1 plays this while guitar 2 plays the other.

Guitar 1 verse
eb|--------------------------|----------------------------|
Bb|--------------------------|----------------------------|
Gb|--------------------------|----------------------------|
db|--11-----13----3-----1----|----11-----13----3-----5----|
Ab|--11-x24-13-x1-3-x12-1-x12|----11-x24-13-x1-3-x12-5-x12|
Db|--11-----13----3-----1----|----11-----13----3-----5----|

eb|--------------------------|----------------------------|
Bb|--------------------------|----------------------------|
Gb|--------------------------|----------------------------|
db|--11-----13----3-----1----|----11-----13----3-----5----|
Ab|--11-x24-13-x1-3-x12-1-x12|----11-x24-13-x1-3-x12-5-x12|
Db|--11-----13----3-----1----|----11-----13----3-----5----|


Guitar 2 verse
eb|------------------------------------------------------------------------|
Bb|--4-4-4-4-4-4-4-4-4-6-6-6-6-6-6-6-6-7-7-7-7-7-7-7-7-7-7-9-9-9-9-9-9-9-9-|
Gb|------------------------------------------------------------------------|
db|------------------------------------------------------------------------|
Ab|------------------------------------------------------------------------|
Db|------------------------------------------------------------------------|

eb|-------10---------10---------10---------10-12-12-14-14-15-15-14-14-|
Bb|--9-11----11-9-11----11-9-11----11-9-11----------------------------|
Gb|-------------------------------------------------------------------|
db|-------------------------------------------------------------------|
Ab|-------------------------------------------------------------------|
Db|-------------------------------------------------------------------|

eb|------------------------------------------------------------------------|
Bb|--4-4-4-4-4-4-4-4-4-6-6-6-6-6-6-6-6-7-7-7-7-7-7-7-7-7-7-9-9-9-9-9-9-9-9-|
Gb|------------------------------------------------------------------------|
db|------------------------------------------------------------------------|
Ab|------------------------------------------------------------------------|
Db|------------------------------------------------------------------------|

eb|-------10---------10---------10---------10-12-12-14-14-15-15-14-14-|
Bb|--9-11----11-9-11----11-9-11----11-9-11----------------------------|
Gb|-------------------------------------------------------------------|
db|-------------------------------------------------------------------|
Ab|-------------------------------------------------------------------|
Db|-------------------------------------------------------------------|

eb|------------------------------------------------------------------------|
Bb|--4-4-4-4-4-4-4-4-4-6-6-6-6-6-6-6-6-7-7-7-7-7-7-7-7-7-7-9-9-9-9-9-9-9-9-|
Gb|------------------------------------------------------------------------|
db|------------------------------------------------------------------------|
Ab|------------------------------------------------------------------------|
Db|------------------------------------------------------------------------|

eb|-------10---------10---------10---------10-12-12-14-14-15-15-14-14-|
Bb|--9-11----11-9-11----11-9-11----11-9-11----------------------------|
Gb|-------------------------------------------------------------------|
db|-------------------------------------------------------------------|
Ab|-------------------------------------------------------------------|
Db|-------------------------------------------------------------------|

eb|------------------------------------------------------------------------|
Bb|--4-4-4-4-4-4-4-4-4-6-6-6-6-6-6-6-6-7-7-7-7-7-7-7-7-7-7-9-9-9-9-9-9-9-9-|
Gb|------------------------------------------------------------------------|
db|------------------------------------------------------------------------|
Ab|------------------------------------------------------------------------|
Db|------------------------------------------------------------------------|

eb|-------10---------10---------10---------10-12-12-14-14-15-15-14-14-|
Bb|--9-11----11-9-11----11-9-11----11-9-11----------------------------|
Gb|-------------------------------------------------------------------|
db|-------------------------------------------------------------------|
Ab|-------------------------------------------------------------------|
Db|-------------------------------------------------------------------|

This is what the guitars end on.

Guitar 1 outro
eb|-------|
Bb|-------|
Gb|-------|
db|--11---|
Ab|--11---|
Db|--11---|

Guitar 2 outro
eb|--12~--|
Bb|-------|
Gb|-------|
db|-------|
Ab|-------|
Db|-------|


Intro
verse
Outro
Tap to rate this tab
# A B C D E F G H I J K L M N O P Q R S T U V W X Y Z