Song name
# A B C D E F G H I J K L M N O P Q R S T U V W X Y Z

The Classic Crime - Wake Up Ship Wreck tab

Wake Up (Ship Wreck) - The Classic Crime.

Amazing song by them, enjoy!

Intro/Verse:
E|---------------------------------------------------------|
B|---------------------------------------------------------|
G|-----------8-----------8--------6-----6-----6-----6------|
D|--------6-----------6--------------8-----8-----8-----8---| x 4
A|-----8-----------8-----------8---------------------------|
E|--6-----------8-----------9------------------------------|


E|--------------------------------------------------|
B|--------------------------------------------------|
G|--3--3--3--3--5--5--5--5--6--6--6--6--5--5--5--5--|
D|--3--3--3--3--5--5--5--5--6--6--6--6--5--5--5--5--| x 4
A|--1--1--1--1--3--3--3--3--4--4--4--4--3--3--3--3--|
E|--------------------------------------------------|

Chorus (Listen to the song for strumming patterns)
E|--4--4--~-|
B|--4--4--~-|
G|--5--6--~-|
D|--6--6--~-|
A|--6--4--~-|
E|--4-------|

Solo
Guitar 1

E|-----------------------------------------------------------|
B|-11\9-9-9-9-8-9/11-9-8-9-8-9-11-9-8-9-8-9-11-9-------------|
G|-----------------------------------------------12-10-8-8---|
D|-----------------------------------------------------------|
A|-----------------------------------------------------------|
E|-----------------------------------------------------------|

E|----------------------11-9-8-6-9-8-6-4---------------------|
B|-9-9-8-9-11-9-8-9-8-9--------------------------------------|
G|-----------------------------------------------------------|
D|-----------------------------------------------------------|
A|-----------------------------------------------------------|
E|-----------------------------------------------------------|

Guitar 2

E|--4--4--|
B|--4--4--|
G|--5--6--|
D|--6--6--|
A|--6--4--|
E|--4-----|

Verse 2

E|-----------|
B|-----------|
G|--3--5--6--|
D|--3--5--6--|
A|--1--3--4--|
E|-----------|

E|---------------------------------------------------------|
B|---------------------------------------------------------|
G|-----------8-----------8--------6-----6-----6-----6------|
D|--------6-----------6--------------8-----8-----8-----8---|
A|-----8-----------8-----------8---------------------------|
E|--6-----------8-----------9------------------------------|

E|--------------------|
B|--------------------|
G|--3----5----6-------|
D|--3-x8-5-x8-6-x16---| x2
A|--1----3----4-------|
E|--------------------|

Chorus 2
E|--4--4--6--4-|
B|--4--4--6--4-|
G|--5--6--6--6-|
D|--6--6--8--6-|
A|--6--4--8--4-|
E|--4-----6----|

Breakdown
E|--------------|
B|--------------|
G|-----------6--|
D|--3--5--6--6--|x5
A|--3--5--6--4--|
E|--1--3--4-----|

Chorus2 x2

Itís a beautiful landscape
The sunset makes the coast look so clear
Itís the kind that makes you heart break
But no one has those kind of problems here

And from the sagebrush comes a dove
It comes to take away the ones you love
In camouflage comes a dove, and it comes to take away the ones you love

Wake up you faithless, see your heartbreak gone

The wolf has found a way to lead this foolish flock of sheep astray
And the clouds make fearful noises and slowly turn black and shake
The darkness comes around you
The dark has come to take
And it will cut the life right from you and leave you standing in the rain
With no where left to run to, and no one left to love you but the pain

Wake up you faithless, see your heartbreak gone
Itís no use trying to hold on
Wake up you faithless, you wonít be here for long
And this shipwreck will soon be gone
(this shipwreck will soon be gone)

All that I know is what Iíve learned from troubled times
Iíve stood alone on the last shore, weapon in hand under black skies
I have been hunted through the valleys and the corners of my life
Fight or die

Wake up you faithless, see your heartbreak gone
Itís no use trying to hold on
Wake up you faithless, you wonít be here for long
And this shipwreck will soon be gone

Wake up you faithless
Tap to rate this tab
 
# A B C D E F G H I J K L M N O P Q R S T U V W X Y Z