Song name
# A B C D E F G H I J K L M N O P Q R S T U V W X Y Z

The Classic Crime - Far From Home tab

This song is in half step down tuning. Listen For Strumming.

Intro:listen for strumming 0:00-0:20

Verse 1 -Ive got a bad....
E|------0--2--0------9---8---|--|
B|------1--1--1--11--9---8---|--|
G|--10--2--2--2--10--10--8---|--|
D|--11--2--2--2--8---11--10--|--|
A|--11-----------8---11--10--|--|
E|--9------------8---9---8---|--|


Verse 2 -0:20-0:41
E|------0--2--0------|-----|
B|------1--1--1--11--|-----|
G|--10--2--2--2--10--|-----|
D|--11--2--2--2--8---|-----|
A|--11-----------8---|-----|
E|--9------------8---|-----|


Verse 3 -0:41-1:00
E|--9-------9---8-----|--|
B|--9---11--9---8-----|--|
G|--10--10--10--8-----|--|
D|--11--8---11--10----|--|
A|--11--8---11--10----|--|
E|--9---8---9---8-----|--|

Verse 1   1:00-1:20
Verse 2   1:20-1:41
Verse 3 X2 1:41-2:18

Verse 4 2:18-2:34

E|--2--3--6--9---|--|
B|--2--3--6--9---|--|
G|--3--3--6--10--|--|
D|--4--5--8--11--|--|
A|--4--5--8--11--|--|
E|--2--3--6--9---|--|

Verse 5 2:34-2:50

E|--2--3--6--9---8---|
B|--2--3--6--9---8---|
G|--3--3--6--10--8---|
D|--4--5--8--11--10--|
A|--4--5--8--11--10--|
E|--2--3--6--9---8---|

Verse 4 3:08-3:24
Verse 5 X2 3:24-3:40


All together the song goes like this.
Verse 1
Verse 2
Verse 3
Verse 1
verse 2
Verse 3 X2
Verse 4
Verse 5
Verse 4
Verse 5 X2
Tap to rate this tab
# A B C D E F G H I J K L M N O P Q R S T U V W X Y Z