Song name
# A B C D E F G H I J K L M N O P Q R S T U V W X Y Z

The Classic Crime - Vagabonds tab

Intro

E|---------------------------|
B|---------------------------|
G|------------------------x2-|
D|------5---5--------5-------|
A|---5h665--6b---5h6656b---|
D|-0------------0------------|

Verse

E|----------------------------------------------------------------|
B|----------------------------------------------------------------|
G|------------------------x2--------------------------------------|
D|------5---5--------5---------------10-----10---------10---------|
A|---5h665--6b---5h6656b------10h11--11-10-11b10h11-11-10-11b-|
D|-0------------0------------0-------------------0----------------|


E|---------------------------|
B|---------------------------|
G|---------------------------|
D|------5---5--------5-------|
A|---5h665--6b---5h6656b---|
D|-0------------0------------|
Tap to rate this tab
# A B C D E F G H I J K L M N O P Q R S T U V W X Y Z