The Classic Crime - When The Time Comes tab

This tab is for those who don't want to tune down a half step. Its the same as the other 
just transposed so you can play it in standard ^_^. I'm pretty sure its right, but 
and corrections are always welcome :) Enjoy and God bless!!
-1 Cor. 10:31

e|-------------------------------------------------------------------|
B|----0--0--0--0--0---0--0--0--0--0----------------------------------|
G|------------------------------------3--3--3--3--3--3--3--3--3--3---|
D|---1--1--1--1--1---1--1--1--1--1-----------------------------------| x2
A|--2--2--2--2--2--------------------1--1--1--1--1--1--1--1--1--1----|
E|------------------4--4--4--4--4---2--2--2--2--2--2--2--2--2--2-----|

e|-------------------------------------------------------------------|
B|----0--0--0--0--0---0--0--0--0--0------------------------2--0------|
G|------------------------------------3--3--3--3--3---3---------3h4--|
D|---1--1--1--1--1---1--1--1--1--1-----------------------------------|
A|--2--2--2--2--2--------------------1--1--1--1--1---1--1--1--1--1---|
E|------------------4--4--4--4--4---2--2--2--2--2---2--2--2--2--2----|

Chords:

   Abm        Ebm
e|--4--|   e|--3--|
B|--4--|   B|--4--|
G|--4--|   G|--3--|
D|--6--|   D|--1--|
A|--6--|   A|-----|
E|--4--|   E|-----|

e|-------------------------------------------------------------------|
B|----0--0--0--0--0---0--0--0--0--0------------------------2--0------|
G|------------------------------------3--3--3--3--3---3---------3h4--|
D|---1--1--1--1--1---1--1--1--1--1-----------------------------------|
A|--2--2--2--2--2--------------------1--1--1--1--1---1--1--1--1--1---|
E|------------------4--4--4--4--4---2--2--2--2--2---2--2--2--2--2----|

e|----------------2----------------------------------------------------|
B|----0--0--2--0------0--0--2--0------------2-----0---------2--0-------|
G|--------------------------------3---3--3-----3------3-----------3h4--|
D|---1--1--1--1--1---1--1--1--1--1-------------------------------------|
A|--2--2--2--2--2--------------------1--1--1--1--1---1--1--1--1--1-----|
E|------------------4--4--4--4--4---2--2--2--2--2---2--2--2--2--2------|

Chords:

Abm, Ebm,    B
         e|--2--|
         B|--4--|
         G|--4--|
         D|--4--|
         A|--2--|
         E|-----|

e|----------------2---------------------------------------------------2-|
B|----0--0--2--0------0--0--2--0------------2-----0---------2--0------4-|
G|--------------------------------3---3--3-----3------3-----------3h4-4-|
D|---1--1--1--1--1---1--1--1--1--1------------------------------------4-|
A|--2--2--2--2--2--------------------1--1--1--1--1---1--1--1--1--1----2-|
E|------------------4--4--4--4--4---2--2--2--2--2---2--2--2--2--2-------|

| h hammer-on
Tap to rate this tab
 
# A B C D E F G H I J K L M N O P Q R S T U V W X Y Z