Song name
# A B C D E F G H I J K L M N O P Q R S T U V W X Y Z

The Classic Crime - Vagabonds tab

Tuning: 1/2 step down

Intro Riff:
d#|----------------------------------------|
A#|----------------------------------------|
F#|--------1-----1----------1--------------|
C#|----1/2---2-1---2~---1/2---2-1-2~-------|
G#|----------------------------------------|
D#|-0-----------------0--------------------|

Other Intro Riff:

d#|----------------------------------|
A#|------2-----2---------------------|
F#|---1/2--2-1---2~--------1---------|
C#|--------------------1/2--2-1-2----|
G#|-0--------------------------------|
D#|-----------------0----------------|

Pre-Chorus:

d#|------------|---(First Time)----|----(Second Time)----|
A#|------------|----------------|------------------------|
F#|-4------6----|----------------|---------------4~------|
C#|-4-(x8)-6-(x8)-|----------------|-------------4~------|
G#|-2------4----|----------------|---------------2~------|
D#|-------------|-2-22-2-2-2-2-2-|-2-22-2-2-2-2----------|

Chorus part 1:
d#|----------------------------------|
A#|----------------------------------|
F#|-66-666-699-999-9-----------------|
C#|-66-666-699-999-977-777-799-999-9-|
G#|-44-444-477-777-777-777-799-999-9-|
D#|-----------------55-555-577-777-7-|

Chorus part 2:
d#|--------------------------------|
A#|--------------------------------|
F#|-6------9-----------------------|
C#|-6-(x8)-9-(x8)-7------9---------|
G#|-4------7------7-(x8)-9-(x8)----|
D#|---------------5------7---------|

Solo part 1:
d#|-7-5-4h5-2h4-----------|
A#|-------------5h6-5p4-0-|
F#|-----------------------|
C#|-----------------------|
G#|-----------------------|
D#|-----------------------|

Solo part 2:
d#|-12-11-9h11-7h9----------12-11-9h11-7h9---------12-11-9h11-7h9--------|
A#|-----------------9h10-11^-----------------7h9-7------------------9h11-|
F#|------------------------------------------------9---------------------|
C#|----------------------------------------------------------------------|
G#|----------------------------------------------------------------------|
D#|----------------------------------------------------------------------|

     |---------------------------------------------|
     |-9h10p9h10p9h10p9h10p9h10p9h10p9-9h10p9------|
     |----------------------------------------9----|
     |------------------------------------------9~-|
     |---------------------------------------------|
     |---------------------------------------------|


Intro Riff (x3)
Other Intro Riff
Intro Riff
Other Intro Riff
Pre-Chorus
Chorus part 1 (x2)
Chorus part 2 (x2)
Intro Riff (x2)
Other Intro Riff
Intro Riff
Other Intro Riff
Pre-Chorus
Chorus part 1 (x2)
Chorus part 2 (x2)
Intro Riff
Solo part 1 (x4)
Solo part 2
Chorus part 1 (x2)
Chorus part 2 (x4)
Intro Riff (x2)

~ = let ring
/ = slide
^ = bend string
h = hammer
p = pull
Tap to rate this tab
 
# A B C D E F G H I J K L M N O P Q R S T U V W X Y Z