Song name
# A B C D E F G H I J K L M N O P Q R S T U V W X Y Z

The Classic Crime - Glass Houses tab

Title: Glass Houses
Artist: The Classic Crime
Album: Phoenix(2012)

Tabbed by: angeluskai@hotmail.com

Tuning: Standard - EADGBe

This most likely isn't 100% correct. If you have any corrections, just let me
know. I didn't tab out the exact amount of times each note is played or the
strum patterns; you can figure that out yourselves.

PM = palm mute
x = mute
~ = vibrato/let ring

Intro
e:----------------------------------------|
B:----------------------------------------|
G:------------------------------------9~--|
D:------777-----777-----777--1010--77-----|   (Those are 10's)
A:--888-----888------888------------------|
E:----------------------------------------|

e:-------------------------------------------------------------------------|
B:-------------------------------------------------------------------------|
G:--10-9-10-9-10-9------------9----9----10-9-10-9-10-9----9----------------|
D:-----------------10----7-10---10---------------------10---10-12-10-------|
A:-------------------------------------------------------------------10-8~-|
E:-------------------------------------------------------------------------|

Verse
e:---------------------------------|
B:---------------------------------|
G:---------------------------------|
D:---------------------------------|
A:----------5~--------------5~--3~-|
E:--1~--5~------5~--1~--5~---------|

Pre-Chorus
e:-----------------|
B:-----------------|
G:--------------5--|
D:--3-----3-----5--|
A:--1--3--1--3--3--|
E:-----1-----1-----|
   |----PM----|

Chorus
e:-----------------------|
B:-----------------------|
G:--------7--5--------5--|
D:--3--7--7--5--8--3--5--|
A:--3--7--5--3--8--3--3--|
E:--1--5--------6--1-----|

e:-------------------------------------------------------------------------|
B:-------------------------------------------------------------------------|
G:--10-9-10-9-10-9------------9----9----10-9-10-9-10-9----9----------------|
D:-----------------10----7-10---10---------------------10---10-12----------|
A:----------------------------------------------------------------12-10-8~-|
E:-------------------------------------------------------------------------|

Verse
e:---------------------------------|
B:---------------------------------|
G:---------------------------------|
D:---------------------------------|
A:----------5~--------------5~--3~-|
E:--1~--5~------5~--1~--5~---------|

Pre-Chorus
e:-------------------|
B:-------------------|
G:--------------5--3-|
D:--3-----3-----5--3-|
A:--1--3--1--3--3--1-|
E:-----1-----1-------|
   |----PM----|

Chorus
e:---------------------------------------------------|
B:---------------------------------------------------|
G:---------7--5--------5--------7--5--------5--6--7--|
D:x--3--7--7--5--8--3--5--3--7--7--5--8--3--5--6--7--|
A:x--3--7--5--3--8--3--3--3--7--5--3--8--3--3--4--5--|
E:x--1--5--------6--1-----1--5--------6--1-----------|

Bridge Guitar 1
e:------8-5----6-5-----5-----  -------|
B:----6------------8-6---8-6-  -------|
G:--7------------------------  -------|
D:---------------------------  --11b--|
A:---------------------------  -------|
E:---------------------------  -------|

Bride Guitar 2
e:--------------------------------|
B:--------------------------------|
G:------------------7-------------|
D:--7---------------7--8--10--11--|
A:--5--8--10--11----5--8--10--11--|
E:-----6--8---9--------6--8---9---|
   |-----PM----|

Chorus
e:--------------------------------------------------|
B:--------------------------------------------------|
G:--------7--5--------5--------7--5--------5--6--7--|
D:--3--7--7--5--8--3--5--3--7--7--5--8--3--5--6--7--|
A:--3--7--5--3--8--3--3--3--7--5--3--8--3--3--4--5--|
E:--1--5--------6--1-----1--5--------6--1-----------|

End
e:-----------------------|
B:-----------------------|
G:--7--------------------|
D:--7--8--10--11--10--3--|
A:--5--8--10--11--10--3--|
E:-----6--8---9----8--1--|

Tap to rate this tab
# A B C D E F G H I J K L M N O P Q R S T U V W X Y Z