Song name
# A B C D E F G H I J K L M N O P Q R S T U V W X Y Z

The Classic Crime - City Of Orphans tab

Half Step Down (D# G# C# F# A# D#)

Just the verses... I got lazy

D#|------------------------------------------------------------------------|
A#|----1-----1-----1-----1-----1-----1-----1-----1-----1-----1-----1-----1-|
F#|----0-----0-----0-----0-----0-----0-----0-----0-----0-----0-----0-----0-|
C#|------2-----------------0-----------------2-----------3-----------------|
G#|3-----------3-----2-----------2-----0-----------0-----------3-----0-----|
D#|------------------------------------------------------------------------|

D#|------------------------------------------------------------------------|
A#|----1-----1-----1-----1-----1-----1-----1-----1-----1-----1-----1-----1-|
F#|----0-----0-----0-----0-----0-----0-----0-----0-----0-----0-----0-----0-|
C#|------------0-----------------0-----------------0-----------------2-----|
G#|------2-----------------0h2---------------2-----------------0h2---------|
D#|3-----------------3-----------------3-----------------3-----------------|
Tap to rate this tab
 
# A B C D E F G H I J K L M N O P Q R S T U V W X Y Z