Song name
# A B C D E F G H I J K L M N O P Q R S T U V W X Y Z

The Classic Crime - Who Needs Air tab

-------------------------------------------------------------------------------
                             Who Needs Air - the Classic Crime
-------------------------------------------------------------------------------
Tabbed by:skinnyt
E-mail:skinnyt85@gmail.com

I noticed this was not up in a full tab, so I quickly gave it a shot.
Let me know if you have any corrections.  There are obviously multiple guitars
so I attempted to tab whatever will get you the main sound of the song at the time.
Hope you enjoy it.  Awesome band.

Tuning:Drop C#

Intro

e|------0-0-0-------0-0-0-------0-0-0----------------------------------------|
B|------3-3-3-------3-3-3-------3-3-3----------------------------------------|
G|------0-0-0-------0-0-0-------0-0-0----------------------------------------|
D|-4--4--------5--5--------4--4--------5--4----------------------------------|
A|-5--5--------5--5--------5--5--------------5-------------------------------|
D|-0--0--------0--0--------0--0----------------------------------------------|

e|------0-0-0-------0-0-0-------0-0-0----------------------------------------|
B|------3-3-3-------3-3-3-------3-3-3----------------------------------------|
G|------0-0-0-------0-0-0-------0-0-0----------------------------------------|
D|---------------------------------------------------------------------------|
A|-4--4--------5--5--------4--4--------5--5--4-------------------------------|
D|-5--5--------5--5--------5--5--------5--5--5-------------------------------| Repeat twice

Verse 1
e|---------------------------------------------------------------------------|
B|---------------------------------------------------------------------------|
G|---------------------------------------------------------------------------|
D|------4--4------4--4------4--4----4-4------4--4------4--4------4--4----4-4-|
A|-5--5------5--5------5--5------5---5------------------------------------5--|
D|--------------------------------------5--5------5--5------5--5-------5-----| Repeat twice
I long to taste adventure like the nature of the sea,
always moving always hiding all the creatures from beneath.
Singing silent songs of sadness, my waits for its chance
to dance upon the ashes of my burned up little plans, and I

Pre-chorus
e|--------0-----------0-----------0-----------0------------------------------|
B|--------3-----------3-----------3-----------3------------------------------|
G|---------------------------------------------------------------------------|
D|-4-----------4-----------5--4-4------5--4-4--------------------------------|
A|----5-5---------5-5--------------------------------------------------------|
D|---------------------------------------------------------------------------| Repeat twice
stand alone before the night, 
my nakedness is so clear in the glow of the moonlight.
       .       .       .       .
e|---------------------------------------------------------------------------|
B|---------------------------------------------------------------------------|
G|---------------------------------------------------------------------------|
D|-9---9-XX9---9-XX9---9-XX9---9---5---5-XX5---5-XX5---5-XX5---5-------------|
A|-9---9-XX9---9-XX9---9-XX9---9---5---5-XX5---5-XX5---5-XX5---5-------------|
D|-9---9-XX9---9-XX9---9-XX9---9---5---5-XX5---5-XX5---5-XX5---5-------------| Repeat twice
Life is all, but so short
We are young; we want more.

Chorus
e|-5---2----------5----------------------------------------------------------|
B|-3---3---3----------3------------------------------------------------------|
G|---------2--------------4--------------------------------------------------|
D|-0---0---0------5---5---5------9-9X9-9X9-9X9-9 999-5-5X5-5X5-5X5-5---------|
A|-0---0---0------5---5---5------9-9X9-9X9-9X9-9 999-5-5X5-5X5-5X5-5---------|
D|-0---0---0------5---5---5------9-9X9-9X9-9X9-9 999-5-5X5-5X5-5X5-5---------|
I'm drowning, but I don't care.
When you've got what I got, what I got, who needs air?  I don't need air.

Intro again

Verse 2 is same as verse 1, no repeat, then first line of pre-chorus
My addiction to danger like the rush of the sea,
like a wave on the rocks the lessons crash down on me
I don't need to prove the world to you, only to myself
so step back, look away, as I dive into the swell

Chorus

Bridge-listen for the strum pattern
e|---------------------------------------------------------------------------|
B|---------------------------------------------------------------------------|
G|-7----11-----0-----6-------------------------------------------------------|
D|-9-----0-----5-----7-------------------------------------------------------|
A|-9-----0-----5-----7-------------------------------------------------------|
D|-9-----0-----5-----7-------------------------------------------------------|

Take me down to the river like a little child
and take my hand and tell me its okay to be wild
I never knew the world until I saw it through your eyes.
I never knew myself until I ripped off my disguise.

Chorus with intro background
Chorus twice normal

I have come to the realization that life is more than I have accomplished.
I have come to the realization that we have accomplished nothing at all.
True success is so selfless so live out 
the song of your life as you give up the air that you breathe.
You don't need anything.

Intro
e|-------------------------------------------------------|
B|----------3--------------------------------------------|
G|-------0-----------------------------------------------|
D|----4--------------------------------------------------|
A|-5-----------------------------------------------------|
D|-------------------------------------------------------|


************************************

| /   slide up
| \   slide down
| h   hammer-on
| p   pull-off
| ~   vibrato
| +   harmonic
| x   Mute note
| b   Bend
| pb  Pre-bend
| br  Bend release
| pbr Pre-bend release
| brb Bend release bend

************************************
Tap to rate this tab
 
# A B C D E F G H I J K L M N O P Q R S T U V W X Y Z