Song name
# A B C D E F G H I J K L M N O P Q R S T U V W X Y Z

The Classic Crime - Say The Word tab

-------------------------------------------------------------------------------
			     Say the Word - The Classic Crime
-------------------------------------------------------------------------------
Tabbed by: orion910
Band Site: http://www.theclassiccrime.com

Tuning: EADGBE (Standard)

Intro:

e|--0---0---0--0---0---0---0------------------------------------------------|
B|---0---0---0--0---0---0---0-----------------------------------------------|
G|----4---4------4---4-------4----------------------------------------------|
D|--------------------------------------------------------------------------|
A|--------------------------------------------------------------------------|
E|--------------------------------------------------------------------------|
(Do that continuously until the pre-verse)

Pre-Verse
Gtr1
e|--------------------------------------------------------------------------|
B|------12-9----12-9---------12-------12-----12-----12----------------------|
G|--11p9----11p9-----13p9h11---13p9h11---8h9---9-8h9------------------------|
D|--------------------------------------------------------------------------|
A|--------------------------------------------------------------------------|
E|--------------------------------------------------------------------------|
Repeat 2x

Pre-Verse
Gtr2
e|--------------------------------------------------------------------------|
B|--------------------------------------------------------------------------|
G|--------------------------------------------------------------------------|
D|--7----9----11----6-------------------------------------------------------|
A|--7----9----11----6-------------------------------------------------------|
E|--5-8x-7-8x-9-8x--4-8x----------------------------------------------------|
Repeat 2x

Verse 1

e|--------------------------------------------------------------------------|
B|--------------------------------------------------------------------------|
G|------------66666666------------------------------------------------------|
D|--44444444--66666666--77777777--99999999----------------------------------|
A|--44444444--44444444--77777777--99999999----------------------------------|
E|--22222222--xxxxxxxx--55555555--77777777--4x------------------------------|    
xxxxxxxx xxxxxxxx  xxxxxxxx  xxxxxxxx


Pre-Chorus
Gtr1
e|--0---0---0--0---0---0---0------------------------------------------------|
B|---0---0---0--0---0---0---0-----------------------------------------------|
G|----4---4------4---4-------4----------------------------------------------|
D|--------------------------------------------------------------------------|
A|--------------------------------------------------------------------------|
E|--------------------------------------------------------------------------|
(Do that continuously again until the chorus)

Pre-Chorus
Gtr2
e|--------------------------------------------------------------------------|
B|--------------------------------------------------------------------------|
G|--------------------------------------------------------------------------|
D|--------------------------------------------------------------------------|
A|----7/9\7--7/9\7--7/9\7--7/9\7--------------------------------------------|
E|--5------7------9------4--------------------------------------------------|
Repeat 2x

Chorus

e|--------------------------------------------------------------------------|
B|--------------------------------------------------------------------------|
G|--------------------------------------------------------------------------|
D|--7----9----11----6-------------------------------------------------------|
A|--7----9----11----6-------------------------------------------------------|
E|--5-8x-7-8x-9-8x--4-8x----------------------------------------------------|
Repeat 2x

Verse 2

e|--------------------------------------------------------------------------|
B|--------------------------------------------------------------------------|
G|------------66666666------------------------------------------------------|
D|--44444444--66666666--77777777--99999999----------------------------------|
A|--44444444--44444444--77777777--99999999----------------------------------|
E|--22222222--xxxxxxxx--55555555--77777777--4x------------------------------|    
xxxxxxxx xxxxxxxx  xxxxxxxx  xxxxxxxx

Pre-Chorus
Gtr1
e|--0---0---0--0---0---0---0------------------------------------------------|
B|---0---0---0--0---0---0---0-----------------------------------------------|
G|----4---4------4---4-------4----------------------------------------------|
D|--------------------------------------------------------------------------|
A|--------------------------------------------------------------------------|
E|--------------------------------------------------------------------------|
(Do that continuously again until the chorus)

Pre-Chorus
Gtr2
e|--------------------------------------------------------------------------|
B|--------------------------------------------------------------------------|
G|--------------------------------------------------------------------------|
D|--------------------------------------------------------------------------|
A|----7/9\7--7/9\7--7/9\7--7/9\7--------------------------------------------|
E|--5------7------9------4--------------------------------------------------|
Repeat 2x

Chorus

e|--------------------------------------------------------------------------|
B|--------------------------------------------------------------------------|
G|--------------------------------------------------------------------------|
D|--7----9----11----6-------------------------------------------------------|
A|--7----9----11----6-------------------------------------------------------|
E|--5-8x-7-8x-9-8x--4-8x----------------------------------------------------|
Repeat 4x

Bridge

e|---------------------------0---0---0---0---0---0--------------------------|
B|----------------------------0---0---0---0---0---0-------------------------|
G|---------------------4-------4---4-------4---4----------------------------|
D|----6-4--6-4---6-4--6------------------------------66666------------------|
A|---7----7-----7----7-------------------------------66666------------------|
E|--5----5-----5----5----4x--------------------------44444------------------|
                                                     xxxxx
Chorus
Gtr1
e|--------------------------------------------------------------------------|
B|------12-9----12-9---------12-------12-----12-----12----------------------|
G|--11p9----11p9-----13p9h11---13p9h11---8h9---9-8h9------------------------|
D|--------------------------------------------------------------------------|
A|--------------------------------------------------------------------------|
E|--------------------------------------------------------------------------|
Repeat 2x and then on the final chorus do it again.

Chorus
Gtr2
e|--------------------------------------------------------------------------|
B|--------------------------------------------------------------------------|
G|--------------------------------------------------------------------------|
D|--7----9----11----6-------------------------------------------------------|
A|--7----9----11----6-------------------------------------------------------|
E|--5-8x-7-8x-9-8x--4-8x----------------------------------------------------|
Repeat 5x


| /  slide up
| \  slide down
| h  hammer-on
| p  pull-off
| ~  vibrato
| +  harmonic
| x  Mute note
===============================================================================
Tap to rate this tab
 
# A B C D E F G H I J K L M N O P Q R S T U V W X Y Z