Song name
# A B C D E F G H I J K L M N O P Q R S T U V W X Y Z

The Classic Struggle - Amen To Artillery tab

|-----|-------------------------------|
|-----|-------------------------------|
|-----|-------------------------------| 2x
|-12/-|-0-------------0---------------|
|-12/-|-0-8p7-4-4h5---0-8p7-4-4h5p4---|
|-12/-|-0-------------0------------3*-|

|---|
|---|
|---|
|-0-|
|-0-| Let Ring
|-0-|

Clean
|-----------------------------------------------------|
|-----------------------------------------------------|
|-2--2--2--2---3--3--3--3---0--0--0--0---0--0--0--0---|
|--3--3--3--3---3--3--3--3---5--5--5--5---3--3--3--3--|
|---5--5--5--5---5--5--5--5---3--3--3--3---1--1--1--1-|
|-----------------------------------------------------|

|-----------------------------------------------------|
|-----------------------------------------------------|
|-2--2--2--2---3--3--3--3---5--5--5--5---3--3--3--3---|
|--3--3--3--3---3--3--3--3---7--7--7--7---5--5--5--5--|
|---5--5--5--5---5--5--5--5---7--7--7--7---5--5--5--5-|
|-----------------------------------------------------|
 3x

Distortion
|----------------------------------------|
|----------------------------------------|
|------2---------3---------0---------0---|
|-------3---------3---------5---------3--|
|--------5---------5---------3---------1-|
|-0-0-0----0-0-0-----0-0-0-----0-0-0-----|

|----------------------------------------|
|----------------------------------------|
|------2---------3---------5---------3---|
|-------3---------3---------7---------5--|
|--------5---------5---------7---------5-|
|-0-0-0----0-0-0-----0-0-0-----0-0-0-----|
3x

http://www.theclassicstruggle.com/

Tap to rate this tab
 
# A B C D E F G H I J K L M N O P Q R S T U V W X Y Z