The Clay People - Awake tab

Awake by The Clay People
Dropped D tuning
Tabbed by Tyler
If you have any questions, email me at Awesomeness881@live.com
Enjoy!

*intro*
|--------------------------------------------|
|--------------------------------------------|
|--------------------------------------------|
|--------------------------------------------|
|--------------------------------------------|
|------------0--------12---12---12---12------|
                      ^----Triplet----^

|--------------------------------------------|
|--------------------------------------------|
|--------------------------------------------|
|--------------------------------------------|x3
|--------------------------------------------|
|1-----1-----0--------12---12---12---12------|
 ^---triplet---^        ^----Triplet----^
(repeats throughout whole song)

*verse 1*
|--------------------------------------------------------------------------|
|--------------------------------------------------------------------------|
|--------7-7-7-7-5-5-5-5-8-8-8-8-------------------------------------------|
|0-0-0-0-7-7-7-7-5-5-5-5-8-8-8-8-5-5-5-5-7-7-7-7-10/------------1-1-1-1-3-3|
|0-0-0-0-5-5-5-5-3-3-3-3-6-6-6-6-5-5-5-5-7-7-7-7-10/------------1-1-1-1-3-3|
|0-0-0-0-------------------------5-5-5-5-7-7-7-7-10/------------1-1-1-1-3-3|
^-----16th notes-------------------------------palm muted------------^
x8
                        
*chorus*
|--------------------------------------------------------------------------|
|--------------------------------------------------------------------------|
|--------7-7-7-7-5-5-5-5-8-8-8-8-------------------------------------------|
|0-0-0-0-7-7-7-7-5-5-5-5-8-8-8-8-5-5-5-5-7-7-7-7-10/------------1-1-1-1-3-3|
|0-0-0-0-5-5-5-5-3-3-3-3-6-6-6-6-5-5-5-5-7-7-7-7-10/------------1-1-1-1-3-3|
|0-0-0-0-------------------------5-5-5-5-7-7-7-7-10/------------1-1-1-1-3-3|
x2

*verse 2*
|--------------------------------------------------------------------------|
|--------------------------------------------------------------------------|
|--------7-7-7-7-5-5-5-5-8-8-8-8-------------------------------------------|
|0-0-0-0-7-7-7-7-5-5-5-5-8-8-8-8-5-5-5-5-7-7-7-7-10/------------1-1-1-1-3-3|
|0-0-0-0-5-5-5-5-3-3-3-3-6-6-6-6-5-5-5-5-7-7-7-7-10/------------1-1-1-1-3-3|
|0-0-0-0-------------------------5-5-5-5-7-7-7-7-10/------------1-1-1-1-3-3|
x3
^--------------------------------palm muted-------------------------------^
                                                   ^---slide----^

*Pre-Chorus*
|----------------------------------------------------------------------|
|---3-3-3-3-3-3-3-3-2-2-2-2-2-2-2-2-1-1-1-1-1-1-1-1-0-0-0-0-0-0-0-0----|
|----------------------------------------------------------------------|
|----------------------------------------------------------------------|x4
|----------------------------------------------------------------------|
|----------------------------------------------------------------------|

*chorus*
|--------------------------------------------------------------------------|
|--------------------------------------------------------------------------|
|--------7-7-7-7-5-5-5-5-8-8-8-8-------------------------------------------|
|0-0-0-0-7-7-7-7-5-5-5-5-8-8-8-8-5-5-5-5-7-7-7-7-10/------------1-1-1-1-3-3|
|0-0-0-0-5-5-5-5-3-3-3-3-6-6-6-6-5-5-5-5-7-7-7-7-10/------------1-1-1-1-3-3|
|0-0-0-0-------------------------5-5-5-5-7-7-7-7-10/------------1-1-1-1-3-3|
x4

*verse 3*
|--------------------------------------------------------------------------|
|--------------------------------------------------------------------------|
|--------7-7-7-7-5-5-5-5-8-8-8-8-------------------------------------------|
|0-0-0-0-7-7-7-7-5-5-5-5-8-8-8-8-5-5-5-5-7-7-7-7-10/------------1-1-1-1-3-3|
|0-0-0-0-5-5-5-5-3-3-3-3-6-6-6-6-5-5-5-5-7-7-7-7-10/------------1-1-1-1-3-3|
|0-0-0-0-------------------------5-5-5-5-7-7-7-7-10/------------1-1-1-1-3-3|

^-------------------------------palm muted--------------------------------^

|-----------------------------------------|
|-----------------------------------------|
|-----------------------------------------|
|0--------------------------1----1----0---|x2
|0--------------------------1----1----0---|
|0--------------------------1----1----0---|
                            ^-8th notes-^
|--------------------------------------------------------------------------|
|--------------------------------------------------------------------------|
|--------7-7-7-7-5-5-5-5-8-8-8-8-------------------------------------------|
|0-0-0-0-7-7-7-7-5-5-5-5-8-8-8-8-5-5-5-5-7-7-7-7-10/------------1-1-1-1-3-3|
|0-0-0-0-5-5-5-5-3-3-3-3-6-6-6-6-5-5-5-5-7-7-7-7-10/------------1-1-1-1-3-3|
|0-0-0-0-------------------------5-5-5-5-7-7-7-7-10/------------1-1-1-1-3-3|
^---------------------------------palm muted-----------------------------^
x2

*Pre-Chorus*
|-------------------------------------------------------------------------|
|----3-3-3-3--3-3-3-3-2-2-2-2-2-2-2-2-1-1-1-1-1-1-1-1--0-0-0-0-0-0-0-0----|
|-------------------------------------------------------------------------|
|-------------------------------------------------------------------------|
|-------------------------------------------------------------------------|
|-------------------------------------------------------------------------|
x3

|-------------------------------------------------------------------------|
|----3-3-3-3-3-3-3-3-2-2-2-2-2-2-2-2-9-9-9-9-9-9-9-9-9-9-9-9-9-9-9-9------|
|-------------------------------------------------------------------------|
|-------------------------------------------------------------------------|
|-------------------------------------------------------------------------|
|-------------------------------------------------------------------------|

*chorus*
|--------------------------------------------------------------------------|
|--------------------------------------------------------------------------|
|--------7-7-7-7-5-5-5-5-8-8-8-8-------------------------------------------|
|0-0-0-0-7-7-7-7-5-5-5-5-8-8-8-8-5-5-5-5-7-7-7-7-10/------------1-1-1-1-3-3|
|0-0-0-0-5-5-5-5-3-3-3-3-6-6-6-6-5-5-5-5-7-7-7-7-10/------------1-1-1-1-3-3|
|0-0-0-0-------------------------5-5-5-5-7-7-7-7-10/------------1-1-1-1-3-3|
x4

*drum solo*
|-----------------------------------------|
|-----------------------------------------|
|-----------------------------------------|
|---------------------------1----1----0---|x3
|---------------------------1----1----0---|
|---------------------------1----1----0---|

*bridge*
|--------------------------------------------------------------------------|
|--------------------------------------------------------------------------|
|7-7-7-7-7-7-7-7-----------------5-5-5-5-5-5-5-5---------------------------|
|7-7-7-7-7-7-7-7-1-1-1-1-1-1-1-1-5-5-5-5-5-5-5-5-1-1-1-1-0-0-0-0-----------|
|5-5-5-5-5-5-5-5-1-1-1-1-1-1-1-1-3-3-3-3-3-3-3-3-1-1-1-1-0-0-0-0-----------|
|----------------1-1-1-1-1-1-1-1-----------------1-1-1-1-0-0-0-0-----------|
x4

*chorus*
|--------------------------------------------------------------------------|
|--------------------------------------------------------------------------|
|--------7-7-7-7-5-5-5-5-8-8-8-8-------------------------------------------|
|0-0-0-0-7-7-7-7-5-5-5-5-8-8-8-8-5-5-5-5-7-7-7-7-10/------------1-1-1-1-3-3|
|0-0-0-0-5-5-5-5-3-3-3-3-6-6-6-6-5-5-5-5-7-7-7-7-10/------------1-1-1-1-3-3|
|0-0-0-0-------------------------5-5-5-5-7-7-7-7-10/------------1-1-1-1-3-3|
x8

|--------------------------------------------------------------------------|
|--------------------------------------------------------------------------|
|--------------------------------------------------------------------------|
|0-------------------------------------------------------------------------|
|0-------------------------------------------------------------------------|
|0-------------------------------------------------------------------------|
THE END!
Tap to rate this tab
 
# A B C D E F G H I J K L M N O P Q R S T U V W X Y Z