Song name
# A B C D E F G H I J K L M N O P Q R S T U V W X Y Z

The Cleftones - Heart And Soul tab

Help us improve GuitareTab! Take a short survey!
 #----------------------------------PLEASE NOTE--------------------------------#
#This file is the author's own work and represents their interpretation of the#
#song. You may only use this file for private study, scholarship, or research.#
#-----------------------------------------------------------------------------#
#-- File created with Instab - http://www.pconline.com/~smcarey/instab.html --#
#-----------------------------------------------------------------------------#

Author/Artist: Huey Lewis & The News
Title: Heat And Soul
Transcribed by: saverain
d strum down
u strum up
/ slide up
\ slide down
h hammer on
v vibrato

standard tuning

--------------------|-5-5-5-5--5--5\3--3---|----------------------------------|
--------------------|-7-7-7-7--7--7\5--5---|----------------------------------|
--------------------|-6-6-6-6--6--6\4--4---|----------------------------------|
--------------------|----------------------|----------------------------------|
--------------------|----------------------|----------------------------------|
--------------------|----------------------|----------------------------------|
  Intro Arr. Guitar   u d u d  d  d u  d

----------------|-5--5--5--5-5-5-5-5-5-5--3--x-3-x-3--3-3-3-3-3-3--|----------|
----------------|-7--7--7--7-7-7-7-7-7-7--5--x-5-x-5--5-5-5-5-5-5--|----------|
----------------|-6--6--6-----------------4--x-4-x-4---------------|----------|
----------------|--------------------------------------------------|----------|
----------------|--------------------------------------------------|----------|
----------------|--------------------------------------------------|----------|
G1 Intro/Verse   um um um u d u d u d u  d  d u u d  d u d u d u

----------------|-5--5--5--5-5-5-5-5-5-5--3--x-3-x-3-3-3-3-3-3-3-3--|---------|
----------------|-7--7--7--7-7-7-7-7-7-7--5--x-5-x-5-5-5-5-5-5-5-5--|---------|
----------------|-6--6--6-----------------4--x-4-x-4----------------|---------|
----------------|---------------------------------------------------|---------|
----------------|---------------------------------------------------|---------|
----------------|---------------------------------------------------|---------|
                                                   d u d u d u d u

------|-5--5--5--5-5-5-5-5-5-5--3--3--3-3-3-3-3-3-3-3--|---------|--3---2----|
------|-7--7--7--7-7-7-7-7-7-7--5--5--5-5-5-5-5-5-5-5--|--3-3-3--|--3---3----|
------|-6--6--6-----------------4--4--4----------------|--2-2-2--|--0---0----|
------|------------------------------------------------|--0-0-0--|-----------|
------|------------------------------------------------|---------|-----------|
------|------------------------------------------------|---------|-----------|
                                                         1st end   2nd end

------|-----------------|--------------------------|--|---------------|-------|
------|-----------------|--------------------------|--|---------------|-------|
------|-----------------|--------------------------|--|---------------|-------|
------|-------5-5-5-5-5-|-7-7--7-7--7--7-5--5----5-|--|-7-7--7-7--7\--|-------|
------|-------5-5-5-5-5-|-7-7--7-7--7--7-5--5----5-|--|-7-7--7-7--7\--|-------|
------|-3-----3-3-3-3-3-|-5-5--5-5--5--5-3--3----3-|--|-5-5--5-5--5\--|-------|
        Prechorus        Chorus                         Chorus end

------|-----------------------------------------------------------------------|
------|-----------------------------------------------------------------------|
------|--------9----------11-10-9vv--------9--------11-10-9vv--------9--------|
------|-7-11-7---11-10-9------------7-11-7---11-10------------7-11-7---11-10--|
------|-----------------------------------------------------------------------|
------|-----------------------------------------------------------------------|
     Interlude

---------------------9--------------------|-----------------------------------|
-----------------------10-----------------|-----------------------------------|
----11-10-9vv-------------9-7--11-10-9vv\-|-----------------------------------|
-9------------7-11-7----------------------|-----------------------------------|
------------------------------------------|-----------------------------------|
------------------------------------------|-----------------------------------|


------|----------------------------|----------------------------|--|----------|
------|----------------------------|----------------------------|--|----------|
------|-2--2--2--2vv---------------|-2----2--2-2vv--------------|--|----------|
------|--------------5-4-2---------|---------------5-4-2--------|2x|----------|
------|---------------------5-2/4--|----------------------5-2/4-|--|----------|
------|----------------------------|----------------------------|--|----------|
    During chorus riff

------|--------------------------|-------|------------------------------------|
------|--------------------------|-------|------------------------------------|
------|-2----2--2-2vv------------|-------|------------------------------------|
------|---------------5-4--------|-------|------------------------------------|
------|-------------------7vvv\--|-------|------------------------------------|
------|--------------------------|-------|------------------------------------|
                                   Verse
Related for Heart And Soul tab