Guitaretab - guitar tabs
Song name
# A B C D E F G H I J K L M N O P Q R S T U V W X Y Z

The Click Five - Say Goodnight tab

Say Goodnight
Bullet For My Valentine
Standard D tuning
I tabbed this entire song by ear, and it's 100% correct. Don't believe me? Ask anyone.
Have fun and enjoy. 
This is lead guitar only. I didn't bother with rhythm.					




Intro. Clean Guitar. x4
|-------------------------------------------------------------------------------------------------|
|-------------------------------------------------------------------------------------------------|
|-------------0-----------------0-----------0-----------------0-----------------0-----------0-----|
|--------4-------4-----4-----------4-----4-----4--------4--------4-----4-----------4-----4-----4--|
|-----7-----7-------7--------7--------5--------------7-----7--------7--------7--------5-----------|
|--0----------------------0-----------------------0-----------------------0-----------------------|

Solo 1. Distorted Guitar.
|-------------------------------------------------------------------------------------------------|
|-------------------------------------------------------------------------------------------------|
|-----------------------7-------------------------------------------------------------------------|
|--/9~--7-9-10-9-7-----------------7------------------------------------9-10-7~-9------7----------|
|------------------10-9---10~-9-10---10-9-10-9-5-5/7~-5-7-9-7-9-10-9-10-----------10~----9--------|
|-------------------------------------------------------------------------------------------------|

Solo 1 Continued.
|---15p14-----------15p14-----------15p14--14-17b(19)-15-14-15-14h17p15p14------------------------|
|--------15--------------15--------------15-------------------------------15----------------------|
|----------14--------------14---------------------------------------------------------------------|
|------------17~-------------14~------------------------------------------------------------------|
|-------------------------------------------------------------------------------------------------|
|-------------------------------------------------------------------------------------------------|

Solo 1 Continued.
|---15p14-----------15p14-----------15p14--14-17b(19)-15-14-15-17-15-14-14h15p14------------------|
|--------15--------------15--------------15-------------------------------------17~---------------|
|----------14--------------14---------------------------------------------------------------------|
|------------17~-------------14~------------------------------------------------------------------|
|-------------------------------------------------------------------------------------------------|
|-------------------------------------------------------------------------------------------------|

Verse 1. Clean Guitar.
|-------------------------------------------------------------------------------------------------|
|-------------------------------------------------------------------------------------------------|
|-------------0-----------------0-----------0-----------------0-----------------0-----------0-----|
|--------4-------4-----4-----------4-----4-----4--------4--------4-----4-----------4-----4-----4--|
|-----7-----7-------7--------7--------5--------------7-----7--------7--------7--------5-----------|
|--0----------------------0-----------------------0-----------------------0-----------------------|

Verse 1 Continued.
|-------------------------------------------------------------------------------------0-----------|
|-------------------------------------------------------------------------------0--------0-----0--|
|-------------0-----------------0-----------0-----------------0--------------------0--------0-----|
|--------4-------4-----4-----------4-----4-----4--------4--------4-----4--------------------------|
|-----7-----7-------7--------7--------5--------------7-----7--------7--------7--------------------|
|--0----------------------0-----------------------0-----------------------0-----------------------|

Verse 1 Continued.
|--------------------------------------0-----------------------------------------------0----------|
|--------------------------------0--------0-----0--------------------------------0--------0-----0-|
|--------0--------0-----------------0--------0-----------0--------0-----------------0--------0----|
|-----4--------4-----4--------------------------------4--------4-----4----------------------------|
|--3--------5-----------5-----7--------------------3--------5-----------5-----7-------------------|
|--------------------------0-----------------------------------------------0----------------------|

Verse 1 Continued.

|--------------------------------------0-----------------------------------------------0----------|
|--------------------------------0--------0-----0--------------------------------3--------3-----3-|
|--------0--------0-----------------0--------0-----------0--------0-----------------0--------0----|
|-----4--------4-----4--------------------------------4--------4-----4--------2-------------------|
|--3--------5-----------5-----7--------------------3--------5-----------5--3----------------------|
|--------------------------0----------------------------------------------------------------------|

Verse 1 Continued.
|--------------------------------------0-----------------0-----------------------------0----------|
|--------3-----------------------0--------0-----0-----------0--------------------3--------3-----3-|
|-----------0--------0--------------0--------0-----------------------0--------------0--------0----|
|-----2-----------4-----4-----------------------------------------4-----4-----2-------------------|
|--3-----------5--------------7-----------------------7--------5-----------3----------------------|
|--------------------------0-----------------------0----------------------------------------------|

Verse 1 Continued.
|-------------------------------------------0-----------------------------------|
|--------3-----------------0~~--------0--------0-----0--------------------------|
|-----------0--------0-----0~~-----------0--------0-----------0--------0--------|
|-----2-----------4-----4--2~~-----------------------------4--------4-----4-----|
|--3-----------5-----------2~~-----7--------------------3--------5-----------5--|
|--------------------------0~~--0-----------------------------------------------|

Verse 1 Continued.
|--------------0-----------------------------------------------0----------------------------------|
|--------0--------0-----0--------------------------------0--------0-----0-------------------------|
|-----------0--------0-----------0--------0-----------------0--------0-----------0--------0-------|
|-----------------------------4--------4-----4--------------------------------4--------4-----4----|
|-----7--------------------3--------5-----------5-----7--------------------3--------5-----------5-|
|--0-----------------------------------------------0----------------------------------------------|

Verse 1 Continued.
|--------------0----------------|
|--------0--------0-----0--3~~--|
|-----------0--------0-----0~~--|
|--------------------------2~~--|
|-----7--------------------3~~--|
|--0----------------------------|

Verse 1 Continued.
|--------------0-----------------------------------------------0----------------------------------|
|--------0--------0-----0--------------------------------0--------0-----0-------------------------|
|-----------0--------0-----------0--------0-----------------0--------0-----------0--------0-------|
|-----------------------------4--------4-----4--------------------------------4--------4-----4----|
|-----7--------------------3--------5-----------5-----7--------------------3--------5-----------5-|
|--0-----------------------------------------------0----------------------------------------------|
[ Tab from: http://www.guitaretab.com/t/the-click-five/140062.html ]
Verse 1 Continued.
|--------------0-----------------------------------------------0----------------|
|--------0--------0-----0--------------------------------0--------0-----0--3~~--|
|-----------0--------0-----------0--------0-----------------0--------0-----0~~--|
|-----------------------------4--------4-----4-----------------------------2~~--|
|-----7--------------------3--------5-----------5-----7--------------------3~~--|
|--0-----------------------------------------------0----------------------------|

Verse 1 Continued. x2
|--------------0-----------------------------------------------0----------------------------------|
|--------0--------0-----0--------------------------------0--------0-----0-------------------------|
|-----------0--------0-----------0--------0-----------------0--------0-----------0--------0-------|
|-----------------------------4--------4-----4--------------------------------4--------4-----4----|
|-----7--------------------3--------5-----------5-----7--------------------3--------5-----------5-|
|--0-----------------------------------------------0----------------------------------------------|

Verse 1 Continued.
|--------------0-----------------------------------------------0-----------------0----------------|
|--------3--------3-----3--------3-----------------------0--------0-----0-----------0-------------|
|-----------0--------0--------------0--------0--------------0--------0-----------------------0----|
|-----2-----------------------2-----------4-----4-----------------------------------------4-----4-|
|--3-----------------------3-----------5--------------7-----------------------7--------5----------|
|--------------------------------------------------0-----------------------0----------------------|

Verse 1 Continued.
|--------------0-----------------------------------|
|--------3--------3-----3--------3-----------------|
|-----------0--------0--------------0--------0-----|
|-----2-----------------------2-----------4-----4--|
|--3-----------------------3-----------5-----------|
|--------------------------------------------------|

Solo 2. Distorted Guitar. (5)'s and (7)'s at the beginning are natural harmonics.
|--(5)-----------------------------------------------------------------------------------------|
|----(5)-(7)~----15b(17)(15)(17)--17-19-20-15h17-15h17~--15b(16)------/12-17-12-15-12----------|
|------(5)-----------------------------------------------14b(15)-12~------------------15-------|
|----------------------------------------------------------------------------------------------|
|----------------------------------------------------------------------------------------------|
|----------------------------------------------------------------------------------------------|

Solo 2 Continued.
|--12-17-12-15-12----12h17p15---------------------------------12h14h15p14--15p14h15-17p15h17---|
|-----------------15----------------------------------12h14h15---------------------------------|
|---------------------------------------------12h14h15-----------------------------------------|
|-------------------------------------12h14h15-------------------------------------------------|
|-----------------------------12h14h15---------------------------------------------------------|
|----------------------------------------------------------------------------------------------|

Solo 2 Continued.
|--14-15-17-15-17-19-17-19-20-19-20-22-20-22-22b(24)~~----20p19--19-------------|
|--------------------------------------------------------------20--20-19-17~~---|
|-------------------------------------------------------------------------------|
|-------------------------------------------------------------------------------|
|-------------------------------------------------------------------------------|
|-------------------------------------------------------------------------------|

Repeat Verse 1.

Bridge 1. Distorted Guitar.
|-------------------------------------------------|
|-------------------------------------------------|
|-------------------------------------------------|
|--2---------------------------5--5--5--5--7--7~--|
|--2---2--2--2--2--2--2--2--2--3--3--5--5--5--5~--|
|--0---0--0--0--0--0--0--0--0--------3--3---------|
       *  *  *  *  *  *  *  

Bridge 1 Continued.
|---------------------------------------------------------------------------------------------|
|---------------------------------------------------------------------------------------------|
|--------------------------5~~-----7-------------------------5~~------------------------------| x4
|--------------------------5~~--5--7-------------------------5~~------------------------------|
|------5h7p5h7------5h7p0--3~~--5--5------5h7p5h7-----5h7p0--3~~---5h8p5p0--------------------|
|--0-0---------0-0--------------3-----0-0---------0-0----------------------5p0-5h8p5p0-3h6p3p0|
   * *         * *                    * *         * * 

Cool little riff thingy. Distorted Guitar. Play it really fast.
|--------------------------14-15-17b(19)--5~--|                                
|--------------------15-17--------------------|                                 
|-----------14-16-17--------------------------|  
|--14-16-17-----------------------------------|                               
|---------------------------------------------|                                
|---------------------------------------------|                                
   *  *  *  *  *  *  *  *

Bridge 2/Outro. Distorted Guitar.
|--------------------------------------------------------------------------------------------------|
|--------------------------------------------------------------------------------------------------|
|-------------------------------5~~-----7-------------------------5~~------------------------------|
|/////--------------------------5~~--5--7-------------------------5~~------------------------------|
|/////------5h7p5h7------5h7p0--3~~--5--5------5h7p5h7-----5h7p0--3~~---5h8p5p0--------------------|
|/////--0-0---------0-0--------------3-----0-0---------0-0----------------------5p0-5h8p5p0-3h6p3p0|
        * *         * *                    * *         * *
Bridge 2/Outro Continued.
|--------------------------------------------------------------------------------|
|--------------------------------------------------------------------------------|
|---------------------------------------------------------------------------5~~--|
|----------------------------------9~--9-7-7-5------------------------------5~~--|
|------9h10p9h10-----9h10p9p0-7~~-------------------9h10p9h10-----9h10p9p0--3~~--|
|--0-0-----------0-0----------------------------0-0-----------0-0----------------|
   * *           * *                            * *           * *

Bridge 2/Outro Continued.
|--------------------------------|
|--------------------------------|
|--------------------------------|
|--------------------------------|
|--5h8p5p0-----------------------|
|-----------5p0-5h8p5p0-3h6p3p0--|

Bridge 2/Outro Continued.
|--------------------------------------------------------------------|
|--------------------------------------------------------------------|
|--------------------------------------------------------------------| x3
|--------------------------------------------------------------------|
|----------------------------------------5h8p5p0---------------------|
|--0-0-0-0-0-0-0-0-0-0-0-0-0-0-0-0-0-0-0---------5p0-5h8p5p0-3h6p3p0-|
   * * *   *   * * * * *   *   * *   * *

Bridge 2/Outro Continued.
|----------------------------------------------------------------------------|
|----------------------------------------------------------------------------|
|---------------------------------------------------------7~-----------------|
|-----------------------------------------------------5~--7~-----------------|
|----------------------------------------5h8p5p0------5~--5~--222-2-2222222--|
|--0-0-0-0-0-0-0-0-0-0-0-0-0-0-0-0-0-0-0---------5-0--3~------000-0-0000000--|
   * * *   *   * * * * *   *   * *   * *                      *** * *******


* = Palm Mute
///// = Pick Slide
/ = Slide
h = Hammer
p = Pull
b = Bend
Related for Say Goodnight tab
×
Say Goodnight