Song name
# A B C D E F G H I J K L M N O P Q R S T U V W X Y Z

The Click Five - Mary Jane tab

e|-----------------------------------------------------------------|
B|-----------------------------------------------------------------|
G|-----------------------------------------------------------------|
D|-9p7-7h9-9p7---2h4-4----9p7-7h9-9p7---2>4-2-4-2-4~---------------|
A|-----------------------------------------------------------------|
E|-----------------------------------------------------------------|

e|-----------------------------------------------------------------|
B|------->10-------------------------------------------------------|
G|-6h7p6-----------------------------------------------------------|
D|-----------9>11-9--7>9-7-----------------------------------------|
A|--------------------------7h9-9----------------------------------|
E|-----------------------------------------------------------------|

e|-----------------------------------------------------------------|
B|-9p7-7h9-9p7--5h7-7--7h9-9~-->12-11-12-11-12->12-11-12-11-12--10~|
G|-----------------------------------------------------------------|
D|-----------------------------------------------------------------|
A|-----------------------------------------------------------------|
E|-----------------------------------------------------------------|



>>>>haha
          di ata 2 accurate anywayz pwede n deba...



txt me pips...09053006610...hehe vavay.





Tap to rate this tab
# A B C D E F G H I J K L M N O P Q R S T U V W X Y Z