The Click Five - Nobodys Business tab

Artist: The Click Five
Song: Nobody’s Business
Album: TVC (2010)
Tabbed by: Amanda Ng 
Questions: amandang@live.com.sg 
Twitter: @amanduhsays

Intro
e|-----------------|-----------------|-----------------|-----------------|
B|-----------------|-----------------|-----------------|-----------------|
G|-----------------|-----------------|-----------------|-----------------|
D|-----------------|-----------------|-----------------|-----------------|
A|-2/5-5-5-5-5-5-5-|-----------------|-----------------|-----------------|
E|-----------------|-2-2-2-2-2-2-2-2-|-7-7-7-7-7-7-7-7-|-7-7-7-7-7-3-3-3-|

Verse
e|-----------------|-----------------|-----------------|-----------------|
B|-----------------|-----------------|-----------------|-----------------|
G|-----------------|-----------------|-----------------|-----------------|
D|-----------------|-----------------|-----------------|-----------------|x7
A|-2/5-5-5-5-5-5-5-|-----------------|-----------------|-----------------|
E|-----------------|-2-2-2-2-2-2-2-2-|-7-7-7-7-7-7-7-7-|-7-7-7-7-7-3-3-3-|

Chorus
e|-----------------|-----------------|-----------------|-----------------|
B|-----------------|-----------------|-----------------|-----------------|
G|-7-7-7-7-7-7-7-7-|-----------------|-----------------|-----------------|
D|-7-7-7-7-7-7-7-7-|-4-4-4-4-4-4-4-4-|-9-9-9-9-9-9-9-9-|-9-9-9-9-9-5-5-5-|x4
A|-5-5-5-5-5-5-5-5-|-4-4-4-4-4-4-4-4-|-9-9-9-9-9-9-9-9-|-9-9-9-9-9-5-5-5-|
E|-----------------|-2-2-2-2-2-2-2-2-|-7-7-7-7-7-7-7-7-|-7-7-7-7-7-3-3-3-|

Fill(Played during Verse 2, Bridge and Ending)
e|-------------------|
B|-3-3-2-3-3-3-3-2-3-|
G|-------------------|
D|-------------------|
A|-------------------|
E|-------------------|

Verse
e|-----------------|-----------------|-----------------|-----------------|
B|-----------------|-----------------|-----------------|-----------------|
G|-----------------|-----------------|-----------------|-----------------|
D|-----------------|-----------------|-----------------|-----------------|x4
A|-2/5-5-5-5-5-5-5-|-----------------|-----------------|-----------------|
E|-----------------|-2-2-2-2-2-2-2-2-|-7-7-7-7-7-7-7-7-|-7-7-7-7-7-3-3-3-|

Chorus
e|-----------------|-----------------|-----------------|-----------------|
B|-----------------|-----------------|-----------------|-----------------|
G|-7-7-7-7-7-7-7-7-|-----------------|-----------------|-----------------|
D|-7-7-7-7-7-7-7-7-|-4-4-4-4-4-4-4-4-|-9-9-9-9-9-9-9-9-|-9-9-9-9-9-5-5-5-|x4
A|-5-5-5-5-5-5-5-5-|-4-4-4-4-4-4-4-4-|-9-9-9-9-9-9-9-9-|-9-9-9-9-9-5-5-5-|
E|-----------------|-2-2-2-2-2-2-2-2-|-7-7-7-7-7-7-7-7-|-7-7-7-7-7-3-3-3-|

Bridge
e|-----------------|-----------------|-----------------|-----------------|
B|-----------------|-----------------|-----------------|-----------------|
G|-----------------|-----------------|-----------------|-----------------|
D|-----------------|-----------------|-----------------|-----------------|x4
A|-----5-----5-----|-----------------|-----------------|-----------------|
E|-----------------|-----2-----2-----|-----7-----7-----|-----7-----3-----|

Chorus
e|-----------------|-----------------|-----------------|-----------------|
B|-----------------|-----------------|-----------------|-----------------|
G|-7-7-7-7-7-7-7-7-|-----------------|-----------------|-----------------|
D|-7-7-7-7-7-7-7-7-|-4-4-4-4-4-4-4-4-|-9-9-9-9-9-9-9-9-|-9-9-9-9-9-5-5-5-|x5
A|-5-5-5-5-5-5-5-5-|-4-4-4-4-4-4-4-4-|-9-9-9-9-9-9-9-9-|-9-9-9-9-9-5-5-5-|
E|-----------------|-2-2-2-2-2-2-2-2-|-7-7-7-7-7-7-7-7-|-7-7-7-7-7-3-3-3-|

Tap to rate this tab
 
# A B C D E F G H I J K L M N O P Q R S T U V W X Y Z