Song name
# A B C D E F G H I J K L M N O P Q R S T U V W X Y Z

The Click Five - Be In Love tab

Artist: The Click Five
Song: Be In Love
Album: TVC (2010)
Tabbed by: Amanda Ng 
Questions: amandang@live.com.sg 
Twitter: @amanduhsays

Intro
     C       Am	       F       C
e|-0-0-0-x-0-0-0-x-|-1-1-1-1-0-0-0-0-|
B|-1-1-1-x-1-1-1x-|-1-1-1-1-1-1-1-1-|
G|-0-0-0-x-2-2-2-x-|-2-2-2-2-0-0-0-0-|
D|-2-2-2-x-2-2-2-x-|-3-3-3-3-2-2-2-2-|
A|-3-3-3-x-0-0-0-x-|-3-3-3-3-3-3-3-3-|
E|-------x-------x-|-1-1-1-1---------|

Verse
    C       Am	             F    
e|-0-0-0-x-0-0-0-x-|-1-1-1-1-1-1-1-1-|
B|-1-1-1-x-1-1-1x-|-1-1-1-1-1-1-1-1-|
G|-0-0-0-x-2-2-2-x-|-2-2-2-2-2-2-2-2-|
D|-2-2-2-x-2-2-2-x-|-3-3-3-3-3-3-3-3-| x2
A|-3-3-3-x-0-0-0-x-|-3-3-3-3-3-3-3-3-|
E|-------x-------x-|-1-1-1-1-1-1-1-1-|

Pre Chorus
      Am       F	       Am       F
e|-0-0-0-0-1-1-1-1-|-0-0-0-0-1-1-1-1-|
B|-1-1-1-1-1-1-1-1-|-1-1-1-1-1-1-1-1-|
G|-2-2-2-2-2-2-2-2-|-2-2-2-2-2-2-2-2-|
D|-2-2-2-2-3-3-3-3-|-2-2-2-2-3-3-3-3-|
A|-0-0-0-0-3-3-3-3-|-0-0-0-0-3-3-3-3-|
E|---------1-1-1-1-|---------1-1-1-1-|

Chorus
     C       Am	       F       C
e|-0-0-0-x-0-0-0-x-|-1-1-1-1-0-0-0-0-|
B|-1-1-1-x-1-1-1x-|-1-1-1-1-1-1-1-1-|
G|-0-0-0-x-2-2-2-x-|-2-2-2-2-0-0-0-0-|
D|-2-2-2-x-2-2-2-x-|-3-3-3-3-2-2-2-2-| x2
A|-3-3-3-x-0-0-0-x-|-3-3-3-3-3-3-3-3-|
E|-------x-------x-|-1-1-1-1---------|

Verse
    C       Am	             F    
e|-0-0-0-x-0-0-0-x-|-1-1-1-1-1-1-1-1-|
B|-1-1-1-x-1-1-1x-|-1-1-1-1-1-1-1-1-|
G|-0-0-0-x-2-2-2-x-|-2-2-2-2-2-2-2-2-|
D|-2-2-2-x-2-2-2-x-|-3-3-3-3-3-3-3-3-| x2
A|-3-3-3-x-0-0-0-x-|-3-3-3-3-3-3-3-3-|
E|-------x-------x-|-1-1-1-1-1-1-1-1-|

Pre Chorus
     Am       F	       Am       F
e|-0-0-0-0-1-1-1-1-|-0-0-0-0-1-1-1-1-|
B|-1-1-1-1-1-1-1-1-|-1-1-1-1-1-1-1-1-|
G|-2-2-2-2-2-2-2-2-|-2-2-2-2-2-2-2-2-|
D|-2-2-2-2-3-3-3-3-|-2-2-2-2-3-3-3-3-|
A|-0-0-0-0-3-3-3-3-|-0-0-0-0-3-3-3-3-|
E|---------1-1-1-1-|---------1-1-1-1-|

Chorus
    C       Am	       F       C
e|-0-0-0-x-0-0-0-x-|-1-1-1-1-0-0-0-0-|
B|-1-1-1-x-1-1-1x-|-1-1-1-1-1-1-1-1-|
G|-0-0-0-x-2-2-2-x-|-2-2-2-2-0-0-0-0-|
D|-2-2-2-x-2-2-2-x-|-3-3-3-3-2-2-2-2-| x2
A|-3-3-3-x-0-0-0-x-|-3-3-3-3-3-3-3-3-|
E|-------x-------x-|-1-1-1-1---------|



Fill (During Guitar Solo)
      C      Am         C      Am
e|-0-0-0-0-0-0-0-0-|-0-0-0-0-0-0-0-0-| 
B|-1-1-1-1-1-1-1-1-|-1-1-1-1-1-1-1-1-| 
G|-2-2-2-2-2-2-2-2-|-2-2-2-2-2-2-2-2-|
D|-3-3-3-3-2-2-2-2-|-3-3-3-3-2-2-2-2-|
A|-0-0-0-0-0-0-0-0-|-0-0-0-0-0-0-0-0-| 
E|-----------------|-----------------|

     C       Am	       F       C
e|-0-0-0-x-0-0-0-x-|-1-1-1-1-0-0-0-0-|
B|-1-1-1-x-1-1-1x-|-1-1-1-1-1-1-1-1-|
G|-0-0-0-x-2-2-2-x-|-2-2-2-2-0-0-0-0-|
D|-2-2-2-x-2-2-2-x-|-3-3-3-3-2-2-2-2-| 
A|-3-3-3-x-0-0-0-x-|-3-3-3-3-3-3-3-3-|
E|-------x-------x-|-1-1-1-1---------|

Guitar Solo
e|-------------------6-8-10b-10b-10b-10b-10p8-8-8-8-10-12------------------|
B|-----10---------10--------------------------------------13b--------------|
G|-10b----10b-10b---------------------------------------------10b----------|
D|----------------------------------------------------------------10b-8----|
A|----------------------------------------------------------------------10-|
E|-------------------------------------------------------------------------|

Chorus
    C       Am	       F       C
e|-0-0-0-x-0-0-0-x-|-1-1-1-1-0-0-0-0-|
B|-1-1-1-x-1-1-1x-|-1-1-1-1-1-1-1-1-|
G|-0-0-0-x-2-2-2-x-|-2-2-2-2-0-0-0-0-|
D|-2-2-2-x-2-2-2-x-|-3-3-3-3-2-2-2-2-| x6
A|-3-3-3-x-0-0-0-x-|-3-3-3-3-3-3-3-3-|
E|-------x-------x-|-1-1-1-1---------|

Ending Chord
e|--------0--------|
B|--------1--------|
G|--------0--------|
D|--------2--------|
A|--------3--------|
E|--------0--------|
Tap to rate this tab
 
# A B C D E F G H I J K L M N O P Q R S T U V W X Y Z