The Click Five - The Way It Goes tab

                                       The Way It Goes
                                   by: The Click Five
Intro:

E|-------------------------------|
B|-------------------------------|
G|--9------8------6------8-------|
D|--9 [7x]-8 [3x]-6 [7x]-8 [3x]--| [2x]
A|--7------6------4------6-------|
E|-------------------------------|

Verse:

    E       C#m
E|-------------------------|
B|-------------------------|
G|--1-------6-------2------|
D|--2 [24x]-6 [24x]-2 [24x]| [2x]
A|--2-------4-------0------|
E|-------------------------|

Pre - chorus:
"And everybody knows, and everbody knows"

E|----------------------|
B|----------------------|
G|--444444666666222222--|
D|--444444666666222222--| [2x}
A|--222222444444000000--|
E|----------------------|

*Note* : After Kyle sings "That's just the way it goes", repeat intro.

[VERSE]
[PRE - CHORUS]

Chorus:

E|---------------------------------------------|
B|---------------------------------------------|
G|--9------8-----6-----4-----2-----4-----6-----|
D|--9 [9x]-8 [3x]6 [9x]4 [3x]2 [9x]4 [9x]6 [5x]| [2x]
A|--7------6-----4-----2-----0-----2-----4-----|
E|---------------------------------------------|

"That's just the way it go-o-o-o-o-oes"
E|--------------------------|
B|--------------------------|
G|--------2-----1-----4-----|
D|--4-----2-----2-----4-----|
A|--4 [6x]0 [6x]2 [6x]2 [6x]|
E|--2-----------------------|

Before the last Chorus:

  E       C#m
E|-------------------------|  E|-----------------------|
B|-------------------------|  B|-----------------------|
G|--1-------6-------2------|  G|--1------6------4------|
D|--2 [24x]-6 [24x]-2 [24x]|  D|--2 [24x]6 [24x]4 [16x]|
A|--2-------4-------0------|  A|--2------4------2------|
E|-------------------------|  E|-----------------------|

[CHORUS]

P.S. Enjoy! I made this for my friend who is a big fan of TCV. 
     I will soon make a cover of this song so you guys would be clear with the 
strumming pattern. :D
Tap to rate this tab
 
# A B C D E F G H I J K L M N O P Q R S T U V W X Y Z