Guitaretab - guitar tabs
Song name
# A B C D E F G H I J K L M N O P Q R S T U V W X Y Z

The Click Five - Pop Princess tab

The Click Five - Pop Princess
Standard Tuning
Tabbed by: M. D.

Intro
 -----------------------------------------------------| 
 -----------------------------------------------------|
 10---------------------------------------------------|
 10-10--8-10------------------------------------------|
 -8-10--8-10------------------------------------------|
 ----8--6--8------------------------------------------|

Verse 1      palm muted 
-----------------------------------------------------|
-----------------------------------------------------|
-10--------------10----------------------------------|
-10--10--8--10---10--7--12--10-----------------------|x2
-8---10--8--10---8---7--12--10-----------------------|
-----8---6--8--------5--10--8------------------------|

Pre-Chorus
-----------------------------------------------------|
-----------------------------------------------------|
------------------------------5-5-5------------------|
-8-7-5----8-7-5----8-7-5------5-5-5------------------|
-8-7-5----8-7-5----8-7-5------3-3-3------------------|
-6-5-3----6-5-3----6-5-3-----------------------------|

Chorus
-----------------------------------------------------|
-----------------------------------------------------|
-7---5--10--7---5------------------------------------|
-7-5-5--10--7-5-5------------------------------------|x2
-5-5-3--8---5-5-3------------------------------------|
---3----------3--------------------------------------|

Verse 2 palm muted
-----------------------------------------------------|
-----------------------------------------------------|
-10--------------10----------------------------------|
-10--10--8--10---10--7--12--10-----------------------|x2
-8---10--8--10---8---7--12--10-----------------------|
-----8---6--8--------5--10--8------------------------|
[ Tab from: http://www.guitaretab.com/t/the-click-five/61559.html ]
Pre-Chorus
-----------------------------------------------------|
-----------------------------------------------------|
------------------------------5-5-5------------------|
-8-7-5----8-7-5----8-7-5------5-5-5------------------|
-8-7-5----8-7-5----8-7-5------3-3-3------------------|
-6-5-3----6-5-3----6-5-3-----------------------------|

Chorus
-----------------------------------------------------|
-----------------------------------------------------|
-7---5--10--7---5------------------------------------|
-7-5-5--10--7-5-5------------------------------------|x2
-5-5-3--8---5-5-3------------------------------------|
---3----------3--------------------------------------|

Bridge
---------------------------------------------------------------|
---------------------------------------------------------------|
-7~-5~-------5-------------------------------------------------|
-7~-5~-2x--5-52x----------------------------------------------|
-5~-3~-----5-3-------------------------------------------------|
-----------3---------------------------------------------------|

solo
-----------------------------------------------------|
-----------------------------------------------------|
-7---5-10---7---5-5/7--------------------------------|
-7-5-5-10---7-5-5-5/7--------------------------------|
-5-5-3-8----5-5-3-3/5--------------------------------|
---3----------3--------------------------------------|

Chorus
-----------------------------------------------------|
-----------------------------------------------------|
-7---5--10--7---5------------------------------------|
-7-5-5--10--7-5-5------------------------------------|x2
-5-5-3--8---5-5-3------------------------------------|
---3----------3--------------------------------------|

Ending
-----------------------------------------------------|
-----------------------------------------------------|
--10-7-9---------------------------------------------|
--10-7-9-8~------------------------------------------|
-8---5-7-8~------------------------------------------|
---------6-------------------------------------------|
Related for Pop Princess tab