Song name
# A B C D E F G H I J K L M N O P Q R S T U V W X Y Z

The Clientele - Reflections After Jane tab

e|--------------------------------------------------------------------------|
B|15-15-15-13-13-12-12------------------------------------------------------|
G|--------------------14-14-12-12-11-12-11----------------------------------|
D|----------------------------------------14-12-12-11-12-14-11-12-12-11-----|
A|---------------------------------------------------------------------12-12|
E|--------------------------------------------------------------------------|

e|--------------------------------------------------------------------------|
B|15-13-12-13-12----12------------------------------------------------------|
G|---------------14---14-12-11-12-11----------------------------------------|
D|-----------------------------------14-12-12-11-12-14-11-12-12-11----------|
A|-----------------------------------------------------------------12-12----|
E|--------------------------------------------------------------------------|
Tap to rate this tab
# A B C D E F G H I J K L M N O P Q R S T U V W X Y Z