Song name
# A B C D E F G H I J K L M N O P Q R S T U V W X Y Z

The Clientele - Harvest Time tab

-------------------------------------------------------------------------------
                             HARVEST TIME - The Clientele
-------------------------------------------------------------------------------
Tabbed by: sezar
E-mail: Keanu-rimedorf@hotmail.com

Tuning: Standard


Intro & Verse:

e|---3------------------------------------|
B|-----3-----3-----3------3-----3---3-----|
G|-5-----4-5--------5-------4-5------5----|
D|-------------------0----------------0---|
A|----------------------------------------|
E|----------------------------------------|

Chorus: It's harvest time...

e|---------10~--|
B|--------------|
G|--------------|
D|------10------|
A|---10---------|
E|-8------------|

Piano solo on the outro:

e|--------------------|
B|-5-3---3------------|
G|-----5---5-4-2-4-0-2|
D|--------------------|
A|--------------------|
E|--------------------|

************************************

| /   slide up
| \   slide down
| h   hammer-on
| p   pull-off
| ~   vibrato
| +   harmonic
| x   Mute note
| b   Bend
| pb  Pre-bend
| br  Bend release
| pbr Pre-bend release
| brb Bend release bend

************************************
Tap to rate this tab
 
# A B C D E F G H I J K L M N O P Q R S T U V W X Y Z