Song name
# A B C D E F G H I J K L M N O P Q R S T U V W X Y Z

The Cliks - Eyes In The Back Of My Head tab

Band / Artist : The Cliks
Song title : Eyes in the Back of My Head
Tabbed by: JoelleG

Tuning: Standard. No Capo

Easy to play. 
*Listen to the song for the timing and with my tabs you'll get it right!*

Enjoy! :)


INTRO/VERSE
e|-----------------0-----0-----------------------------------|
B|----0--------0-----0-----0------0--------0----0-----0------|
G|------0----0---------0-----0------0----0--------0-----0----|  x6
D|--------------------------------------------------0-----0--|
A|-----------------------------------------------------------|
E|--0------3------8--------------0-----3------6--------------|


CHORUS
e|--------------------------|
B|--------------------------|
G|--9-(X12)-7-(X6)----------|
D|--9-------7-------7-(X6)--|
A|--7-------5-------7-------|
E|------------------5-------|

BRIDGE (When I'm wasted...)
e|----------------------------------------------------------|
B|----------------------------------------------------------|
G|----------------------------------------------------------|
D|--7-(x10)---2-(x10)--7-(x10)--2-(x10)--4-(x8)---5-(x6)----|
A|--7---------2--------7--------2--------4--------5---------|
E|--5---------0--------5--------0--------2--------3---------|

SOLO ( fast strumming ):
e|--12(x20)--15(x6)----------------12(x10)--10(x4)--12(x8)--10(x10)--|
B|-------------------11(x6)--8(x6)-----------------------------------|
G|-------------------------------------------------------------------|
D|-------------------------------------------------------------------|
A|-------------------------------------------------------------------|
E|-------------------------------------------------------------------|

After playing the chorus, the Song ends on that note:
e|-----------------|
B|-----------------|
G|-----------------|
D|--5--------------|
A|--5--------------|
E|--3--------------|

Tap to rate this tab
# A B C D E F G H I J K L M N O P Q R S T U V W X Y Z