Song name
# A B C D E F G H I J K L M N O P Q R S T U V W X Y Z

The Cliks - Dirty King tab

-----------------------------------------------------------------------------
			     DIRTY KING - The Cliks
-----------------------------------------------------------------------------

No one has tabbed this and I know a lot of people are looking for this tab. So I thought
give it a shot. It's 100% by ear, so if some parts are off, dont b***h.

PS: The Cliks & Uh Huh Her - best chick bands ever.


Tuning: Standard


INTRO *(start on 12 and tremolo as you slide to 1)
e|--------------------------------------------------------------------------|
B|------------------------------------88--8---88--8-------------------------|
G|------------------------------------99--9---99--9-------------------------|
D|------------------------------------99--9---99--9-------------------------|
A|------------------------------------77--7---77--7-------------------------|
E|-*12/1---00-33-55-777757775755-0~-----------------------------------------|

e|--------------------------------------------------------------------------|
B|------------------------------------88--8--8------------------------------|
G|------------------------------------99--9--9------------------------------|
D|------------------------------------99--9--9------------------------------|
A|------------------------------------77--7--7------------------------------|
E|-22-33-55-77-99-77-55-0~-------------------7------------------------------|


VERSE 1 (Well I could do the dishes...) x2
e|--------------------------------------------------------------------------|
B|---88-8-88-8--------------------------------------------------------------|
G|---99-9-99-9---88-8-88-8--------------------------------------------------|
D|---99-9-99-9---99-9-99-9--------------------------------------------------|
A|---77-7-77-7---99-9-99-9--------------------------------------------------|
E|---------------77-7-77-7--------------------------------------------------|

e|--------------------------------------------------------------------------|
B|---88-8---88-8------------------------------------------------------------|
G|---99-9---88-8----99-9--9-------------------------------------------------|
D|---99-9---99-9----99-9--9-------------------------------------------------|
A|---77-7---99-9----77-7--7-------------------------------------------------|
E|----------77-7----------7-------------------------------------------------|

Pre Chorus (I am your dirty k-k..) x3
e|--------------------------------------------------------------------------|
B|--------------------------------------------------------------------------|
G|--------------------------------------------------------------------------|
D|--------------------------------------------------------------------------|
A|-3-3-3-3-3----------------------------------------------------------------|
E|-1-1-0-1-1----------------------------------------------------------------|


Chorus ( I am your dirty king!...)
e|--------------------------------------------------------------------------|
B|-8------------------8-------------8------88-8-8---------------------------|
G|-9--------8---------9-------8-----9------99-9-9---------------------------|
D|-9--------9---------9-------9-----9------99-9-9---------------------------|
A|-7-(x16)--9---------7-(x8)--9-----7-(x4)-77-7-7---------------------------|
E|----------7-(x16)-----------7(x8)-------------7---------------------------|

   Post Chorus
e|--------------------------------------------------------------------------|
B|------------------------------------88--8---88--8-------------------------|
G|------------------------------------99--9---99--9-------------------------|
D|------------------------------------99--9---99--9-------------------------|
A|------------------------------------77--7---77--7-------------------------|
E|-00-33-55-777757775755-0~-------------------------------------------------|

e|--------------------------------------------------------------------------|
B|------------------------------------88--8--8------------------------------|
G|------------------------------------99--9--9------------------------------|
D|------------------------------------99--9--9------------------------------|
A|------------------------------------77--7--7------------------------------|
E|-22-33-55-77-99-77-55-0~-------------------7------------------------------|


VERSE 2 (Hey, I can be your boyfriend...) x2
e|--------------------------------------------------------------------------|
B|---88-8-88-8--------------------------------------------------------------|
G|---99-9-99-9---88-8-88-8--------------------------------------------------|
D|---99-9-99-9---99-9-99-9--------------------------------------------------|
A|---77-7-77-7---99-9-99-9--------------------------------------------------|
E|---------------77-7-77-7--------------------------------------------------|

e|--------------------------------------------------------------------------|
B|---88-8---88-8------------------------------------------------------------|
G|---99-9---88-8----99-9--9-------------------------------------------------|
D|---99-9---99-9----99-9--9-------------------------------------------------|
A|---77-7---99-9----77-7--7-------------------------------------------------|
E|----------77-7----------7-------------------------------------------------|

Pre Chorus (I am your dirty k-k..) x3
e|--------------------------------------------------------------------------|
B|--------------------------------------------------------------------------|
G|--------------------------------------------------------------------------|
D|--------------------------------------------------------------------------|
A|-3-3-3-3-3----------------------------------------------------------------|
E|-1-1-0-1-1----------------------------------------------------------------|


Chorus ( I am your dirty king!...) x2
e|--------------------------------------------------------------------------|
B|-8------------------8-------------8------88-8-8---------------------------|
G|-9--------8---------9-------8-----9------99-9-9---------------------------|
D|-9--------9---------9-------9-----9------99-9-9---------------------------|
A|-7-(x16)--9---------7-(x8)--9-----7-(x4)-77-7-7---------------------------|
E|----------7-(x16)-----------7(x8)-------------7---------------------------|


Solo (Not fully sure. Corrections comments are very welcome.)
e|--------------------------------------------------------------------------|
B|--------------------------------------------------------------------------|
G|-0-22-33-5-4h5p4--0-22-33-5/7\5\2~----------------------------------------|
D|--------------------------------------------------------------------------|
A|--------------------------------------------------------------------------|
E|--------------------------------------------------------------------------|

e|--------------------------------------------------------------------------|
B|--------------------------------------------------------------------------|
G|-0-22-33-5-4h5p4---6-8-8-12-10--------------------------------------------|
D|--------------------------------9^^---------------------------------------|
A|--------------------------------------------------------------------------|
E|--------------------------------------------------------------------------|
    (Ah yeah!)
e|--99-7-99-7-7^^-----------------------------------------------------------|
B|--99-7-99-7-7^^99-7-99----------------------------------------------------|
G|-----------------------9^7------------------------------------------------|
D|---------------------------9-999979-11-12/14\12/14/16\14~-----------------|
A|--------------------------------------------------------------------------|
E|--------------------------------------------------------------------------|
                                      *Elevens & Twelves
                                       Fourteens & Sixteens
e|--99-7-9\7----------------------------------------------------------------|
B|--99-7-9\7----------------------------------------------------------------|
G|------------9^^--9-5-9-9^7------12-9-12-13~-171717-15-14-15-10~-----------|
D|------------9^^------------9^---------------------------------------------|
A|--------------------------------------------------------------------------|
E|--------------------------------------------------------------------------|
                                  *Twelves, Thirteens, Seventeens
                                   Fifteens, Fourteens and Tens


Pre Chorus (I am your dirty k-k..) x3
e|--------------------------------------------------------------------------|
B|--------------------------------------------------------------------------|
G|--------------------------------------------------------------------------|
D|--------------------------------------------------------------------------|
A|-3-3-3-3-3----------------------------------------------------------------|
E|-1-1-0-1-1----------------------------------------------------------------|


Chorus ( I am your dirty king!...) x2
e|--------------------------------------------------------------------------|
B|-8------------------8-------------8------88-8-8---------------------------|
G|-9--------8---------9-------8-----9------99-9-9---------------------------|
D|-9--------9---------9-------9-----9------99-9-9---------------------------|
A|-7-(x16)--9---------7-(x8)--9-----7-(x4)-77-7-7---------------------------|
E|----------7-(x16)-----------7(x8)-------------7---------------------------|

Pre Chorus (I am your dirty k-k..) x3
e|--------------------------------------------------------------------------|
B|--------------------------------------------------------------------------|
G|--------------------------------------------------------------------------|
D|--------------------------------------------------------------------------|
A|-3-3-3-3-3----------------------------------------------------------------|
E|-1-1-0-1-1----------------------------------------------------------------|


   Outro

e|--------------------------------------------------------------------------|
B|-------------------------88-----------------------------------------------|
G|-------------------------99-----------------------------------------------|
D|-------------------------99-----------------------------------------------|
A|-------------------------77-----------------------------------------------|
E|-22-33-55-77-99-77-55----77-----------------------------------------------|

END. WHEW! That took forEVER. Haha, you're WELCOME. I hope its right. I'm banking on
92% correct. If you think its all wrong, do it yrself, dont complain to me. Thank you.

| ^  bend
| ^^ bend far
| /  slide up
| \  slide down
| h  hammer-on
| p  pull-off
| ~  vibrato
| +  harmonic
| x  Mute note
===============================================================================
Tap to rate this tab
# A B C D E F G H I J K L M N O P Q R S T U V W X Y Z