The Cliks - Dirty King tab

Dirty King - The Cliks

To keep the TAB short, I have tabbed out and named the individual parts,
all you have to do is piece them together (see the bottom of the tab
For the arangement).

Enjoy.
John

Intro riff:

E|----------------|----------------|------7-7-7-----|-7-7-7----------|
B|----------------|----------------|------8-8-8-----|-8-8-8----------|
G|----------------|----------------|------9-9-9-----|-9-9-9----------|
D|----------------|----------------|------9-9-9-----|-9-9-9----------|
A|----------------|-2-2-3-3-2-2-0-0|------7-7-7-----|-7-7-7----------|
E|-0-0-2-2-3-3-5-5|----------------|-0--------------|----------------|

E|----------------|----------------|----------7-7-7-|-7--------------|
B|----------------|----------------|----------8-8-8-|-8--------------|
G|----------------|----------------|----------9-9-9-|-9--------------|
D|----------------|----------------|----------9-9-9-|-9--------------|
A|-------------2-2|-3-3-2-2--------|----------7-7-7-|-7--------------|
E|-2-2-3-3-5-5----|---------5-5-3-3|-0--------------|----------------|

Verse riff:

E|-7-7-7----------|-7-7-7----------|-7-7-7----------|-7-7-7----------|
B|-8-8-8----------|-8-8-8----------|-7-7-7----------|-7-7-7----------|
G|-9-9-9----------|-9-9-9----------|-7-7-7----------|-7-7-7----------|
D|-9-9-9----------|-9-9-9----------|-9-9-9----------|-9-9-9----------|
A|-7-7-7----------|-7-7-7----------|-9-9-9----------|-9-9-9----------|
E|----------------|----------------|-7-7-7----------|-7-7-7----------|

E|-5-5-5----------|-7-7-7----------|-7-7--7-7-------|----------------|
B|-5-5-5----------|-7-7-7----------|-8-8--8-8-------|----------------|
G|-5-5-5----------|-7-7-7----------|-9-9--9-9-------|----------------|
D|-7-7-7----------|-9-9-9----------|-9-9--9-9-------|----------------|
A|-7-7-7----------|-9-9-9----------|-7-7--7-7-------|----------------|
E|-5-5-5----------|-7-7-7----------|----------------|----------------|

Pre Chorus riff
E|----------------|----------------|----------------|----------------|
B|----------------|----------------|----------------|----------------|
G|----------------|----------------|----------------|----------------|
D|----------------|----------------|----------------|----------------|
A|-3-3---3-3------|-3-3---3-3------|-3-3---3-3------|----------------|
E|-1-1-0-1-1------|-1-1-0-1-1------|-1-1-0-1-1------|----------------|

Chorus riff: 

| E5 | E5 | B5 | B5 |C5 | B5 | E5 |Riff A

Riff A:

E|----------------|
B|----------------|
G|----------------|
D|-5-5---5---5----|
A|-5-5---5---5----|
E|-3-3-0-3-0-3----|


Solo Rhythm:

| F5 | F5 | Em | Em|
| F5 | F5 | Am | Am| 
| F5 | F5 | Em | Em|
| B5 | D#5| G5 | F#5|
| Em | Em | Bm | Bm| C5 Bm | Em | 2x


Solo - Lead:

E|-------------------------------------------------------------------|
B|-------------------------------------------------------------------|
G|-------------------------------------------------------------------|
D|-3------h5--5------/7-7---/10-10-----------9 10 9---ring-----------|
A|-------------------------------------------------------------------|
E|-------------------------------------------------------------------|

E|-------------------------------------------------------------------|
B|-------------------------------------------------------------------|
G|-------------------------------------------------------------------|
D|-3------h5--5------/7-7---/10-10---------12-10---------------------|
A|-----------------------------------------------12---ring-----------|
E|-------------------------------------------------------------------|

E|-------------------------------------------------------------------|
B|-------------------------------------------------------------------|
G|-------------------------------------------------------------------|
D|-3------h5--5------/7-7---/10-10-----------9 10 9------------------|
A|-------------------------------------------------------------------|

E|--------------------------------------------------------ah yeah!---|
E|-------------------------------------------------------------------|
B|-------------------------------------------------------------------|
G|--------------------------------------------12-12---12--11---------|
D|-9-7--------9-9---9--------13-13---13------------------------------|
A|-----10------------------------------------------------------------|
E|-------------------------------------------------------------------|

E|-------------------------------------------------------------------|
B|-15--12-15---12---15---------------15--12-15---12------------------|
G|-14^-12-14---12---14^--------------14^-12-14---12---11-12-11-------|
D|-------------------------------------------------------------12----|
A|----------------------------------------------------------------14-|
E|-------------------------------------------------------------------|

E|-------------------------------------------------------------------|
B|-------------------------------------------------------------------|
G|-----------------------------------------11------------12----------|
D|------------------10-12-14---------12-14------------14----14-------|
A|-14141414141414----------------------------------------------------|
E|-------------------------------------------------------------------|

E|-------------------------------------------------------------------|
B|-15--12-15---12----------------------------------121312--12--------|
G|-14^-12-14---12--------------------------------12------14--141211--|
D|-----------------14-------14----1416-----16--16------------------14|
A|-------------------14-------14-------14----14----------------------|
E|-------------------------------------------------------------------|


Riff B:
E|----------------|----------------|----------------|
B|----------------|----------------|----------------|
G|----------------|----------------|----------------|
D|-5-5---5---5----|-4-4---4-4------|-3-3---3-3------|
A|-5-5---5---5----|-4-4---4-4------|-3-3---3-3------|
E|-3-3-0-3-0-3----|-2-2-0-2-2------|-1-1-0-1-1------|


Outro riff:

E|----------------|----------------|-7-7------------|
B|----------------|----------------|-8-8------------|
G|----------------|----------------|-9-9------------|
D|----------------|----------------|-9-9------------|
A|----------------|-2-2-3-3-2-2-0-0|-7-7------------|
E|-0-0-2-2-3-3-5-5|----------------|----------------|

Arrangment and Lyrics:

Tremelo pick from 14th fret low E string to an open E

Intro riff 1x

Verse riff 2x
	Hey, I can do the dishes
	And I could climb your walls
	And I'll clean out my stitches
	With rubbing alcohol

	Hey, I can paint your eyelids,
	and you'll be so pristine.
	And I can keep your eyes shut,
	To keep you nice and clean.

Pre Chorus riff 1x
	I am your dirty k-k (3x) 

Chorus riff + Riff A
	I am your dirty king, yeah
	I am your dirty king

Verse riff 2x
	Hey I can be your boyfriend
	And I could be your all
	And I'll keep all your secrets
	Inside the bedroom walls

	Well I can be so humble,
	and you'll be so naive.
	And I can be the motor,
	you'll be the gasoline.

Pre Chorus riff 1x
	I am your dirty k-k (3x)

Chorus riff + Riff A 2x
	I am your dirty king, yeah
	I am your dirty king
	I am your dirty king, yeah
	I am your dirty king

Solo rhythm and lead

Pre Chorus riff 1x
	I am your dirty k-k (3x)

Chorus riff + 1st Riff A/ 2nd Riff B
	I am your dirty king, yeah
	I am your dirty king
	I am your dirty king, yeah
	I am your dirty king

Outro riff 1x
Tap to rate this tab
 
# A B C D E F G H I J K L M N O P Q R S T U V W X Y Z