Song name
# A B C D E F G H I J K L M N O P Q R S T U V W X Y Z

The Coathangers - Hurricane tab

Band: The Coathangers
Song: Hurricane
Album: Larceny & Old Lace (Suicide Squeeze Records, 2011)
Tabbed by Logan Wordes
5/12/2012

Intro/Verse

e-----------------------------------------------------------------|
B-----------------------------------------------------------------|
G--7--7--7---7--8s7--7--7---7--8s7--7--7---7--8s7--7--7---7-7-7-7-|
D--7--7--7---7--8s7--7--7---7--8s7--7--7---7--8s7--7--7---7-7-7-7-|
A--5--5--5---5--6s5--5--5---5--6s5--5--5---5--6s5--5--5---5-5-5-5-|
E-----------------------------------------------------------------|


e-----------------------------------------------------------------------------|
B-----------------------------------------------------------------------------|
G--7--7--7---10-10-8--7--7--7---10-10-8--7--7--7---10-10-8--7--7--7---7-7-7-7-|
D--7--7--7---10-10-8--7--7--7---10-10-8--7--7--7---10-10-8--7--7--7---7-7-7-7-|
A--5--5--5---8--8--6--5--5--5---8--8--6--5--5--5---8--8--6--5--5--5---5-5-5-5-|
E-----------------------------------------------------------------------------|

Chorus

e---------------------------------------------------------------------|
B---------------------------------------------------------------------|
G---------------------------------------------------------------------|
D--7-7-7-7-7-7-7-7--6-6-6-6-6-6-6-6--5-5-5-5-5-5-5-5--3-3-3-3-3-3-3-3-|
A--7-7-7-7-7-7-7-7--6-6-6-6-6-6-6-6--5-5-5-5-5-5-5-5--3-3-3-3-3-3-3-3-|
E--5-5-5-5-5-5-5-5--4-4-4-4-4-4-4-4--3-3-3-3-3-3-3-3--1-1-1-1-1-1-1-1-|

Verse x2
Chorus
Verse x2
Chorus

Solo

e--------10-13-------10-10-13----------------------------|
B--10-10-------10-10----------10-10-11-10-11-10-11-11-10-|
G--------------------------------------------------------|
D--------------------------------------------------------|
A--------------------------------------------------------|
E--------------------------------------------------------|

Verse
End on chorus.

http://en.wikipedia.org/wiki/The_Coathangers
https://www.facebook.com/TheCoathangersATL
http://thecoathangers.tumblr.com/
http://www.myspace.com/fuckthecoathangers
Tap to rate this tab
# A B C D E F G H I J K L M N O P Q R S T U V W X Y Z