Song name
# A B C D E F G H I J K L M N O P Q R S T U V W X Y Z

The Color Fred - Ill Never Know tab

Help us improve GuitareTab! Take a short survey!
-------------------------------------------------------------------------------
			     I'll Never Know - The Color Fred
-------------------------------------------------------------------------------
Tabbed by: ReeceofTBC
Email:withheld

Tuning: down half step

e|---------------------------------------------------------------------------|
B|--8-------8-----8-------8-----7------7-----3------1--0------3--0-----------|
G|-----7------7------7-------7-----7-----7-----0---------0---------0----2----|
D|-------0-------------0-------------0-----------0---------0---------0-------|
A|-10------------------------------------------------------------2-----------|
E|----------------7-------------8------------2---------3---------------------|

e|---------------------------------2--3-----2--3-------0---------------------|
B|----------1--3-------1--0------------------------------3-------1---0-------|
G|-0-----0--------2----------0----------0---------0---------0-----------0----|
D|----2--------0----0-----------0---------0---------0---------0-----------0--|
A|-3----------------------------------2--------3-----------------------------|
E|------------------------3------------------------------2-----------1-------|

e|---------------------------------------------------------------------------|
B|---1--0--------------------------------------------------------------------|
G|-2-------------------------------------------------------------------------|
D|---------------------------------------------------------------------------|
A|---------------------------------------------------------------------------|
E|---------------------------------------------------------------------------|



| /  slide up
| \  slide down
| h  hammer-on
| p  pull-off
| ~  vibrato
| +  harmonic
| x  Mute note
===============================================================================
Related for Ill Never Know tab