Song name
# A B C D E F G H I J K L M N O P Q R S T U V W X Y Z

The Color Fred - If I Surrender tab

----------------------------------------------------------------------------
	              If I Surrender - The Color Fred
----------------------------------------------------------------------------

Tabbed by: Adam Murphy
Email: cha-cha-chombee@hotmail.com

Tuning: Standard

INTRO:

e|-x-x-x--------------------6-7-----|
B|-x-x-x-7-0-4-0---0-7-0-4-0---4----|
G|-x-x-x--------3-4-------------6-4-|
D|-x-x-x----------------------------|
A|-x-x-x----------------------------|
E|-x-x-x----------------------------|

e|--------------------6-7-----|
B|-7-0-4-0---0-7-0-4-0---4----|
G|--------3-4-------------6-4-|
D|----------------------------|
A|----------------------------|
E|----------------------------|

e|--------------------6-7-----|
B|-7-0-4-0---0-7-0-4-0---4----|
G|--------3-4-------------6-4-|
D|----------------------------|
A|----------------------------|
E|----------------------------|

e|-x-x-x--------------------6-7-----|
B|-x-x-x-7-0-4-0---0-7-0-4-0---4----|
G|-x-x-x--------3-4-------------6-4-|
D|-x-x-x----------------------------|
A|-x-x-x----------------------------|
E|-x-x-x----------------------------|

e|--------------------6-7-----|
B|-7-0-4-0---0-7-0-4-0---4----|
G|--------3-4-------------6-4-|
D|----------------------------|
A|----------------------------|
E|----------------------------|

e|--------------------6-7-----|
B|-7-0-4-0---0-7-0-4-0---4----|
G|--------3-4-------------6-4-|
D|----------------------------|
A|----------------------------|
E|----------------------------|

============================================================================
Tap to rate this tab
# A B C D E F G H I J K L M N O P Q R S T U V W X Y Z