The Color Morale - The Man Behind The Hands tab

Tuning is Drop D.

Intro w/ Delay and Reverb

~ = vibrato.

E---------------------------------------------------|
B------------------------21~/-----------------------|
G---------------------------------------------------|
D-14~-----------14~-18~-------14~-9~-------14~-18~--|
A------9~-7~-4~----------------------7~-4~----------|
D---------------------------------------------------|

These chords come in at :29
Figure out pattern and strumming.

E----------|
B----------|
G----------|
D-9-11-6-8-|  Repeat a couple of times until 1:09
A-7-9--4-6-|
D-7-9--4-6-|

1:10

E---------------------------|
B---------------------------|
G---------------------------|
D---------------------------|
A-4-4444-------------0-0000-|
D-4-4444-4-4-4-4-4-4-0-0000-|

This is all I have so far. I'll try and work on it some more.
Tap to rate this tab
 
# A B C D E F G H I J K L M N O P Q R S T U V W X Y Z