Guitaretab - guitar tabs
Song name
# A B C D E F G H I J K L M N O P Q R S T U V W X Y Z

The Colour - Mirror Ball tab

Song: Mirror Ball
Band: The Colour(One of the Greatest Band)
Album: Out & About EP
Date: August 3, 2006
Tabber: Wouldn't you like to know.

Intro:

E  :----5--5--x--5--x--5--5--5---|-5--5--x--5--x--5--5--5---|clap--|
B  :----6--6--x--5--x--5--5--6---|-6--6--x--5--x--5--5--6----------|
G  :----5--5--x--5--x--5--5--5---|-5--5--x--5--x--5--5--5----------|
D  :----7--7--x--5--x--5--5--7---|-7--7--x--5--x--5--5--7----------|
A  :----5--5--x--7--x--7--7--5---|-5--5--x--7--x--7--7--5----------|
E  :-----------------------------|---------------------------------|

Verse:2x
Guitar One: Davey
E  :----5--5--x--5--x--5--5--5---|-5--5--x--5--x--5--5--5---|
B  :----6--6--x--5--x--5--5--6---|-6--6--x--5--x--5--5--6---|
G  :----5--5--x--5--x--5--5--5---|-5--5--x--5--x--5--5--5---|
D  :----7--7--x--5--x--5--5--7---|-7--7--x--5--x--5--5--7---|
A  :----5--5--x--7--x--7--7--5---|-5--5--x--7--x--7--7--5---|
E  :-----------------------------|--------------------------|

Guitar Two: Luke (sigh)
E  :-----------------------------|--------------------------|
B  :-------4-----6--4--------3b--|----4-----6--4--------3b--|
G  :----5-----5--------5--3------|-5-----5--------5--3------|
D  :-----------------------------|--------------------------|
A  :-----------------------------|--------------------------|
E  :-----------------------------|--------------------------|
                           |    |                     |    |
                                Just Play around with it.
    [Lyrics]
    Darling itís in the way that you fake it, itís the disguise that youíre wearing
    Out my eyes, I said youíre wearing out my eyes, curse inhibitions.

Instrumental Break:
Guitar One:
E  :------------------------------|-----------------------------|
B  :------------------------------|-----------------------------|
G  :------------------------------|-----------------------------|
D  :------------------------------|-----------------------------|
A  :------------------------------|-----------------------------|
E  :------------------------------|-----------------------------|

Guitar Two:
E  :------------------------------|----4-----6--4---------------|
B  :-------4----6--4----------3-3-|-6-----6--------6-------3-3--|
G  :----5-----5-------5--3--3-----|-------------------3--3------|
D  :------------------------------|-----------------------------|
A  :------------------------------|-----------------------------|
E  :------------------------------|-----------------------------|

Guitar One:
E  :------------------------------|----4-----6--4---------------|
B  :-------4----6--4----------3-3-|-6-----6--------6-------3-3--|
G  :----5-----5-------5--3--3-----|-------------------3--3------|
D  :------------------------------|-----------------------------|
A  :------------------------------|-----------------------------|
E  :------------------------------|-----------------------------|

Guitar Two:
E  :------------------------------|----4-----6--4---------------|
B  :-------4----6--4----------3-3-|-6-----6--------6-------3-3--|
G  :----5-----5-------5--3--3-----|-------------------3--3------|
D  :------------------------------|-----------------------------|
A  :------------------------------|-----------------------------|
E  :------------------------------|-----------------------------|

Verse:2x
Guitar One:
E  :----5--5--x--5--x--5--5--5---|-5--5--x--5--x--5--5--5---|
B  :----6--6--x--5--x--5--5--6---|-6--6--x--5--x--5--5--6---|
G  :----5--5--x--5--x--5--5--5---|-5--5--x--5--x--5--5--5---|
D  :----7--7--x--5--x--5--5--7---|-7--7--x--5--x--5--5--7---|
A  :----5--5--x--7--x--7--7--5---|-5--5--x--7--x--7--7--5---|
E  :-----------------------------|--------------------------|

Guitar Two: Luke
E  :-----------------------------|--------------------------|
B  :-------4-----6--4--------3b--|----4-----6--4--------3b--|
G  :----5-----5--------5--3------|-5-----5--------5--3------|
D  :-----------------------------|--------------------------|
A  :-----------------------------|--------------------------|
E  :-----------------------------|--------------------------|

    [Lyrics]
    And when you get it youíll get down thereís no question marks the spotlight.
    Iím on my own can we move on now, Iím all alone, can we belong now?

Instrumental Break:
Guitar One:
E  :------------------------------|-----------------------------|
B  :------------------------------|-----------------------------|
G  :------------------------------|-----------------------------|
D  :------------------------------|-----------------------------|
A  :------------------------------|-----------------------------|
E  :------------------------------|-----------------------------|

Guitar Two:
E  :------------------------------|----4-----6--4---------------|
B  :-------4----6--4----------3-3-|-6-----6--------6-------3-3--|
G  :----5-----5-------5--3--3-----|-------------------3--3------|
D  :------------------------------|-----------------------------|
A  :------------------------------|-----------------------------|
E  :------------------------------|-----------------------------|

Guitar One:
E  :------------------------------|----4-----6--4---------------|
B  :-------4----6--4----------3-3-|-6-----6--------6-------3-3--|
G  :----5-----5-------5--3--3-----|-------------------3--3------|
D  :------------------------------|-----------------------------|
A  :------------------------------|-----------------------------|
E  :------------------------------|-----------------------------|

Guitar Two:
E  :------------------------------|----4-----6--4---------------|
B  :-------4----6--4----------3-3-|-6-----6--------6-------3-3--|
G  :----5-----5-------5--3--3-----|-------------------3--3------|
D  :------------------------------|-----------------------------|
A  :------------------------------|-----------------------------|
E  :------------------------------|-----------------------------|

Chorus:2x
Im not sure about it, but it sounds pretty close to it.
Guitar One:
E  :--5-5-5-5-5-5-5-5-|-5-5-5-5-5-5-5-5-|-5-5-5-5-5-5-5-5-|-7-7-7-7-7-7-7-7-|
B  :--6-6-6-6-6-6-6-6-|-5-5-5-5-5-5-5-5-|-6-6-6-6-6-6-6-6-|-5-5-5-5-5-5-5-5-|
G  :--5-5-5-5-5-5-5-5-|-5-5-5-5-5-5-5-5-|-5-5-5-5-5-5-5-5-|-5-5-5-5-5-5-5-5-|
D  :--7-7-7-7-7-7-7-7-|-5-5-5-5-5-5-5-5-|-7-7-7-7-7-7-7-7-|-5-5-5-5-5-5-5-5-|
A  :--5-5-5-5-5-5-5-5-|-7-7-7-7-7-7-7-7-|-5-5-5-5-5-5-5-5-|-5-5-5-5-5-5-5-5-|
E  :------------------|-----------------|-----------------|-----------------|

Guitar Two:
E  :--5-5-5-5-5-5-5-5-|-5-5-5-5-5-5-5-5-|-5-5-5-5-5-5-5-5-|-7-7-7-7-7-7-7-7-|
B  :--6-6-6-6-6-6-6-6-|-5-5-5-5-5-5-5-5-|-6-6-6-6-6-6-6-6-|-5-5-5-5-5-5-5-5-|
G  :--5-5-5-5-5-5-5-5-|-5-5-5-5-5-5-5-5-|-5-5-5-5-5-5-5-5-|-5-5-5-5-5-5-5-5-|
D  :--7-7-7-7-7-7-7-7-|-5-5-5-5-5-5-5-5-|-7-7-7-7-7-7-7-7-|-5-5-5-5-5-5-5-5-|
A  :--5-5-5-5-5-5-5-5-|-7-7-7-7-7-7-7-7-|-5-5-5-5-5-5-5-5-|-5-5-5-5-5-5-5-5-|
E  :------------------|-----------------|-----------------|-----------------|

    [Lyrics]
    And what can I say (what can I say) when I get lonely (when I get lonely)
    And its hard to get by, by yourself (by yourself)
    Dont you try to get by, by yourself (by yourself)
[ Tab from: http://www.guitaretab.com/t/the-colour/76324.html ]
Post Chorus:
Guitar One:
E  :--5-5-5-5-|-5-5-5-5-|-5-5-5-5-|-7-7-7-7-|
B  :--6-6-6-6-|-5-5-5-5-|-6-6-6-6-|-5-5-5-5-|
G  :--5-5-5-5-|-5-5-5-5-|-5-5-5-5-|-5-5-5-5-|
D  :--7-7-7-7-|-5-5-5-5-|-7-7-7-7-|-5-5-5-5-|
A  :--5-5-5-5-|-7-7-7-7-|-5-5-5-5-|-5-5-5-5-|
E  :----------|---------|---------|---------|

Guitar Two:
E  :----------|--------4-|4-------|---------|
B  :--6-6-4-4-|----4-4---|--6-6-4-|4--------|
G  :----------|6-6-------|--------|--6-6----|
D  :----------|----------|--------|---------|
A  :----------|----------|--------|---------|
E  :----------|----------|--------|---------|

    [Lyrics]
    Everyone needs, someone to be there.

Guitar One:
E  :--5-5---|-5-5---|-5-5---|-5-5---|
B  :--6-6---|-5-5---|-6-6---|-6-6---|
G  :--5-5---|-5-5---|-5-5---|-5-5---|
D  :--7-7---|-5-5---|-7-7---|-7-7---|
A  :--5-5---|-7-7---|-5-5---|-5-5---|
E  :--------|-------|-------|-------|

Guitar Two:
E  :--------|-------|-------|-------|
B  :--6-6---|-4-4---|-6-6---|-4-4---|
G  :--------|-------|-------|-------|
D  :--------|-------|-------|-------|
A  :--------|-------|-------|-------|
E  :--------|-------|-------|-------|

Verse:2x
Guitar One:
E  :----5--5--x--5--x--5--5--5---|-5--5--x--5--x--5--5--5---|
B  :----6--6--x--5--x--5--5--6---|-6--6--x--5--x--5--5--6---|
G  :----5--5--x--5--x--5--5--5---|-5--5--x--5--x--5--5--5---|
D  :----7--7--x--5--x--5--5--7---|-7--7--x--5--x--5--5--7---|
A  :----5--5--x--7--x--7--7--5---|-5--5--x--7--x--7--7--5---|
E  :-----------------------------|--------------------------|

Guitar Two:
E  :-----------------------------|--------------------------|
B  :-------4-----6--4--------3b--|----4-----6--4--------3b--|
G  :----5-----5--------5--3------|-5-----5--------5--3------|
D  :-----------------------------|--------------------------|
A  :-----------------------------|--------------------------|
E  :-----------------------------|--------------------------|

    [Lyrics]
    (Shake it) shake it up. And shake it now
    (Shake it) shake it up. And shake it now
    (Shake it) shake it up. And shake it now
    (Shake it) shake it up. And shake it down.

Instrumental Break:
Guitar One:
E  :------------------------------|-----------------------------|
B  :------------------------------|-----------------------------|
G  :------------------------------|-----------------------------|
D  :------------------------------|-----------------------------|
A  :------------------------------|-----------------------------|
E  :------------------------------|-----------------------------|

Guitar Two:
E  :------------------------------|----4-----6--4---------------|
B  :-------4----6--4----------3-3-|-6-----6--------6-------3-3--|
G  :----5-----5-------5--3--3-----|-------------------3--3------|
D  :------------------------------|-----------------------------|
A  :------------------------------|-----------------------------|
E  :------------------------------|-----------------------------|

Guitar One:
E  :------------------------------|----4-----6--4---------------|
B  :-------4----6--4----------3-3-|-6-----6--------6-------3-3--|
G  :----5-----5-------5--3--3-----|-------------------3--3------|
D  :------------------------------|-----------------------------|
A  :------------------------------|-----------------------------|
E  :------------------------------|-----------------------------|

Guitar Two:
E  :------------------------------|----4-----6--4---------------|
B  :-------4----6--4----------3-3-|-6-----6--------6-------3-3--|
G  :----5-----5-------5--3--3-----|-------------------3--3------|
D  :------------------------------|-----------------------------|
A  :------------------------------|-----------------------------|
E  :------------------------------|-----------------------------|

Chorus:4x
Guitar One:
E  :--5-5-5-5-5-5-5-5-|-5-5-5-5-5-5-5-5-|-5-5-5-5-5-5-5-5-|-7-7-7-7-7-7-7-7-|
B  :--6-6-6-6-6-6-6-6-|-5-5-5-5-5-5-5-5-|-6-6-6-6-6-6-6-6-|-5-5-5-5-5-5-5-5-|
G  :--5-5-5-5-5-5-5-5-|-5-5-5-5-5-5-5-5-|-5-5-5-5-5-5-5-5-|-5-5-5-5-5-5-5-5-|
D  :--7-7-7-7-7-7-7-7-|-5-5-5-5-5-5-5-5-|-7-7-7-7-7-7-7-7-|-5-5-5-5-5-5-5-5-|
A  :--5-5-5-5-5-5-5-5-|-7-7-7-7-7-7-7-7-|-5-5-5-5-5-5-5-5-|-5-5-5-5-5-5-5-5-|
E  :------------------|-----------------|-----------------|-----------------|

Guitar Two:
E  :--5-5-5-5-5-5-5-5-|-5-5-5-5-5-5-5-5-|-5-5-5-5-5-5-5-5-|-7-7-7-7-7-7-7-7-|
B  :--6-6-6-6-6-6-6-6-|-5-5-5-5-5-5-5-5-|-6-6-6-6-6-6-6-6-|-5-5-5-5-5-5-5-5-|
G  :--5-5-5-5-5-5-5-5-|-5-5-5-5-5-5-5-5-|-5-5-5-5-5-5-5-5-|-5-5-5-5-5-5-5-5-|
D  :--7-7-7-7-7-7-7-7-|-5-5-5-5-5-5-5-5-|-7-7-7-7-7-7-7-7-|-5-5-5-5-5-5-5-5-|
A  :--5-5-5-5-5-5-5-5-|-7-7-7-7-7-7-7-7-|-5-5-5-5-5-5-5-5-|-5-5-5-5-5-5-5-5-|
E  :------------------|-----------------|-----------------|-----------------|

    [Lyrics]
    And what can I say? (What can i say)
    when you fade you fade away,
    And its hard to get by, by yourself (by yourself)
    Dont you try to get by, by yourself (by yourself)
    Carry me on? can we move on now?
    And its hard to get by, by yourself (by yourself)
    Dont you try to get by, by yourself (by yourself)

Post Chorus:
Guitar One:
E  :--5-5-5-5-|-5-5-5-5-|-5-5-5-5-|-7-7-7-7-|
B  :--6-6-6-6-|-5-5-5-5-|-6-6-6-6-|-5-5-5-5-|
G  :--5-5-5-5-|-5-5-5-5-|-5-5-5-5-|-5-5-5-5-|
D  :--7-7-7-7-|-5-5-5-5-|-7-7-7-7-|-5-5-5-5-|
A  :--5-5-5-5-|-7-7-7-7-|-5-5-5-5-|-5-5-5-5-|
E  :----------|---------|---------|---------|

Guitar Two:
E  :----------|---------|-4-4-----|---------|
B  :--6-6-4-4-|-----4-4-|-----6-6-|-4-4-----|
G  :----------|-6-6-----|---------|-----6-6-|
D  :----------|---------|---------|---------|
A  :----------|---------|---------|---------|
E  :----------|---------|---------|---------|

    [Lyrics]
    Dont you think we could be better together?

Guitar One:
E  :--5-5---|-5-5---|-5-5---|-5-5---|
B  :--6-6---|-5-5---|-6-6---|-6-6---|
G  :--5-5---|-5-5---|-5-5---|-5-5---|
D  :--7-7---|-5-5---|-7-7---|-7-7---|
A  :--5-5---|-7-7---|-5-5---|-5-5---|
E  :--------|-------|-------|-------|

Guitar Two:
E  :--------|-------|-------|-------|
B  :--6-6---|-4-4---|-6-6---|-4-4---|
G  :--------|-------|-------|-------|
D  :--------|-------|-------|-------|
A  :--------|-------|-------|-------|
E  :--------|-------|-------|-------|

    [Lyrics]
    Shake It.

Outro:
Guitar One:
E  :--5-x-x-x-|-x-x-x-x-|-5-5-5-5-|-5-5---|
B  :--6-x-x-x-|-x-x-x-x-|-5-5-5-5-|-6-6---|
G  :--5-x-x-x-|-x-x-x-x-|-5-5-5-5-|-5-5---|
D  :--7-x-x-x-|-x-x-x-x-|-5-5-5-5-|-7-7---|
A  :--5-x-x-x-|-x-x-x-x-|-7-7-7-7-|-5-5---|
E  :----x-x-x-|-x-x-x-x-|---------|-------|

Guitar Two:
E  :--5-x-x-x-|-x-x-x-x-|-5-5-5-5-|-5-5---|
B  :--6-x-x-x-|-x-x-x-x-|-5-5-5-5-|-6-6---|
G  :--5-x-x-x-|-x-x-x-x-|-5-5-5-5-|-5-5---|
D  :--7-x-x-x-|-x-x-x-x-|-5-5-5-5-|-7-7---|
A  :--5-x-x-x-|-x-x-x-x-|-7-7-7-7-|-5-5---|
E  :----x-x-x-|-x-x-x-x-|---------|-------|

This song is mostly Rythem (cant spell) so you have to listen to the song. Its not a
This song is so good. This song isnt really hard, Its more fun then hard. Well thats about
Its not that great..but its organized well. Expect more songs from the colour in the 
Down the Cirus, Open Up the Boulevards are in the works. Ima stop now.
Related for Mirror Ball tab