Song name
# A B C D E F G H I J K L M N O P Q R S T U V W X Y Z

The Colour - Kill The Lights tab

Tabbed by: VioletN62
Email: jakesteffes@gmail.com

Song - Kill The Lights
Artist - The Birthday Massacre
Album - Walking With Strangers

Michael Falcore - Lead Guitar (DADGBe)
Rainbow - Rhythm Guitar (DADDAD)

Note - Best if you copy and paste into Microsoft Word using the “Courier New”
font, and using “Normal View” instead of “Page Layout View”

Intro (Keys play immediately after guitar note)

Falcore
e|--------------------------------------------------------------|
B|--------------------------------------------------------------|
G|-7---------------11--------------9---------------11-----------|
D|--------------------------------------------------------------|
A|--------------------------------------------------------------|
D|--------------------------------------------------------------|

Rainbow
D|--------------------------------------------------------------|
A|--------------------------------------------------------------|
D|-12--------------16--------------14--------------16-----------|
D|--------------------------------------------------------------|
A|--------------------------------------------------------------|
D|--------------------------------------------------------------|

------------------------------------------------------------

Falcore (alone)
e|-----------------------------------------------------------------|
B|-----------------------------------------------------------------|
G|-----------------------------------------------------------------|
D|-0-0-0-0-0-0-0-0-4-4-4-4-4-4-4-4-0-0-0-0-0-0-0-0-4-4-4-4-4-4-4-4-|
A|-----------------------------------------------------------------|
D|-----------------------------------------------------------------|
PM . . . . . . . . . . . . . . . . . . . . . . . . . . . . . . . .

-------------------------------------------------------------

Falcore (alone)
e|-------------------------------------------------------------------|
B|-------------------------------------------------------------------|
G|-------------------------------------------------------------------|
D|-2-2-2-2-2-2-2-2-0-0-0-0-0-0-0-0-4-4-4-4-4-4-4-4-2-2-2-2-2-2-2-2---|
A|-------------------------------------------------------------------|
D|-------------------------------------------------------------------|
PM . . . . . . . . . . . . . . . . . . . . . . . . . . . . . . . .

-------------------------------------------------------------

Falcore & Rainbow
e/D|-------------------------------------------------------------------|
B/A|-------------------------------------------------------------------|
G/D|-------------------------------------------------------------------|
D/D|-0-0-0-0-0-0-0-0-4-4-4-4-4-4-4-4-0-0-0-0-0-0-0-0-4-4-4-4-4-4-4-4---|
A/A|-0-0-0-0-0-0-0-0-4-4-4-4-4-4-4-4-0-0-0-0-0-0-0-0-4-4-4-4-4-4-4-4---|
D/D|-0-0-0-0-0-0-0-0-4-4-4-4-4-4-4-4-0-0-0-0-0-0-0-0-4-4-4-4-4-4-4-4---|

-------------------------------------------------------------

Falcore & Rainbow
e/D|-------------------------------------------------------------------|
B/A|-------------------------------------------------------------------|
G/D|-------------------------------------------------------------------|
D/D|-2-2-2-2-2-2-2-2-0-0-0-0-0-0-0-0-4-4-4-4-4-4-4-4-2-2-2-2-2-2-2-2---|
A/A|-2-2-2-2-2-2-2-2-0-0-0-0-0-0-0-0-4-4-4-4-4-4-4-4-2-2-2-2-2-2-2-2---|
D/D|-2-2-2-2-2-2-2-2-0-0-0-0-0-0-0-0-4-4-4-4-4-4-4-4-2-2-2-2-2-2-2-2---|
PM                                                             . . .

-------------------------------------------------------------

Falcore (Play each note twice)
e|-----------------2------5---4--------------------2-------5---7-------|
B|-------------2------3------------------------2-------3---------------|
G|-----2---4---------------------------2---4---------------------------|
D|---------------------------------------------------------------------|
A|---------------------------------------------------------------------|
D|---------------------------------------------------------------------|

Rainbow
D|-------------------------------------------------------------------|
A|-------------------------------------------------------------------|
D|-------------------------------------------------------------------|
D|-0-0-0-0-0-0-0-0-4-4-4-4-4-4-4-4-0-0-0-0-0-0-0-0-4-4-4-4-4-4-4-4---|
A|-0-0-0-0-0-0-0-0-4-4-4-4-4-4-4-4-0-0-0-0-0-0-0-0-4-4-4-4-4-4-4-4---|
D|-0-0-0-0-0-0-0-0-4-4-4-4-4-4-4-4-0-0-0-0-0-0-0-0-4-4-4-4-4-4-4-4---|

-------------------------------------------------------------


Falcore (Play the last 8 notes twice, except for the last one)
e|---5-4-5---5---12---10-9-10---10---10-9----------------------------|
B|----------------------------------------12--10---9-----------------|
G|---------------------------------------------------9-7-6-----------|
D|---------------------------------------------------------7(ring)---|
A|-------------------------------------------------------------------|
D|-------------------------------------------------------------------|

Rainbow
D|-------------------------------------------------------------------|
A|-------------------------------------------------------------------|
D|-------------------------------------------------------------------|
D|-2-2-2-2-2-2-2-2-0-0-0-0-0-0-0-0-4-4-4-4-4-4-4-4-2-2-2-2-2-2-2-2---|
A|-2-2-2-2-2-2-2-2-0-0-0-0-0-0-0-0-4-4-4-4-4-4-4-4-2-2-2-2-2-2-2-2---|
D|-2-2-2-2-2-2-2-2-0-0-0-0-0-0-0-0-4-4-4-4-4-4-4-4-2-2-2-2-2-2-2-2---|

-------------------------------------------------------------

Verse (0:56)

Rainbow (Alone)
D|-------------------------------------------------------------------|
A|-------------------------------------------------------------------|
D|-------------------------------------------------------------------|
D|-0-0-0-0-0-0-0-0-4-4-4-4-4-4-4-4-0-0-0-0-0-0-0-0-4-4-4-4-4-4-4-4---|
A|-------------------------------------------------------------------|
D|-------------------------------------------------------------------|
PM . . . . . . . . . . . . . . . . . . . . . . . . . . . . . . . .

-------------------------------------------------------------

Rainbow (Alone)
D|-------------------------------------------------------------------|
A|-------------------------------------------------------------------|
D|-------------------------------------------------------------------|
D|-2-2-2-2-2-2-2-2-0-0-0-0-0-0-0-0-4-4-4-4-4-4-4-4-2-2-2-2-2-2-2-2---|
A|-------------------------------------------------------------------|
D|-------------------------------------------------------------------|
PM . . . . . . . . . . . . . . . . . . . . . . . . . . . . . . . .

-------------------------------------------------------------

Falcore (Rainbow repeats last two lines)
e|------------------------------------------------------------------|
B|------------------------------------------------------------------|
G|------------------------------------------------------------------|
D|-----5-7(ring)-------5-7(ring)-------5-7(ring)-------5-7(ring)----|
A|-5-5-------------5-5-------------5-5-------------5-5--------------|
D|------------------------------------------------------------------|

-------------------------------------------------------------

Falcore (Rainbow halfway through playing that repeat)
e|-----------------------------------------------------------------|
B|-----------------------------------------------------------------|
G|-----------------------------------------------------------------|
D|-----4-6(ring)-------5-7(ring)-------5-7(ring)---6(ring)---------|
A|-4-4-------------5-5-------------5-5-----------------------------|
D|-----------------------------------------------------------------|

-------------------------------------------------------------

Chorus (1:23)

Falcore
e|-------------------------------------------------------------------|
B|-------------------------------------------------------------------|
G|-------------------------------------------------------------------|
D|-9-9-9-9-9-9-9-9-7-7-7-7-7-7-7-7-7-7-7-7-7-7-7-7-6-6-6-6-6-6-6-6---|
A|-9-9-9-9-9-9-9-9-7-7-7-7-7-7-7-7-7-7-7-7-7-7-7-7-6-6-6-6-6-6-6-6---|
D|-9-9-9-9-9-9-9-9-7-7-7-7-7-7-7-7-7-7-7-7-7-7-7-7-6-6-6-6-6-6-6-6---|

Rainbow
D|-9-9-9-9-9-9-9-9-7-7-7-7-7-7-7-7-7-7-7-7-7-7-7-7-6-6-6-6-6-6-6-6-|
A|-9-9-9-9-9-9-9-9-7-7-7-7-7-7-7-7-7-7-7-7-7-7-7-7-6-6-6-6-6-6-6-6-|
D|-9-9-9-9-9-9-9-9-7-7-7-7-7-7-7-7-7-7-7-7-7-7-7-7-6-6-6-6-6-6-6-6-|
D|-9-9-9-9-9-9-9-9-7-7-7-7-7-7-7-7-7-7-7-7-7-7-7-7-6-6-6-6-6-6-6-6-|
A|-9-9-9-9-9-9-9-9-7-7-7-7-7-7-7-7-7-7-7-7-7-7-7-7-6-6-6-6-6-6-6-6-|
D|-9-9-9-9-9-9-9-9-7-7-7-7-7-7-7-7-7-7-7-7-7-7-7-7-6-6-6-6-6-6-6-6-|

Both play this 4 times

Then play the Verse (1:49)

And then the Chorus (2:15)

-------------------------------------------------------------

Bridge (2:42)

Falcore and Rainbow (Rainbow plays this 4 times, Falcore plays this twice, and then 
something else)
e/D|-----------------------------------------------------------------|
B/A|-----------------------------------------------------------------|
G/D|-----------------------------------------------------------------|
D/D|-5-5-5-5-5-5-5-5-0-0-0-0-0-0-0-0-7-7-7-7-7-7-7-7-2-2-2-2-2-2-2-2-|
A/A|-5-5-5-5-5-5-5-5-0-0-0-0-0-0-0-0-7-7-7-7-7-7-7-7-2-2-2-2-2-2-2-2-|
D/D|-5-5-5-5-5-5-5-5-0-0-0-0-0-0-0-0-7-7-7-7-7-7-7-7-2-2-2-2-2-2-2-2-|
PM   . . . . . . . . . . . . . . . . . . . . . . . . . . . . . . . .

Falcore (twice while Rainbow is playing the last line for the 3rd and 4th time)
e|-------------------------------------------------------------------|
B|-------------------------------------------------------------------|
G|-------------------------------------------------------------------|
D|---5-5-5-5(ring)---0-0-0-0(ring)---7-7-7-7(ring)---2-2-2-2(ring)---|
A|-------------------------------------------------------------------|
D|-------------------------------------------------------------------|
PM   . . .           . . .           . . .           . . .

-------------------------------------------------------------

Outro (3:09)

Falcore
e|-----------------------------------------------------------------|
B|-----------------------------------------------------------------|
G|---------9-----9-7-----------------------9-----9-7---------------|
D|---------------------7---9---7-----------------------7---9---9---|
A|-----------------------------------------------------------------|
D|-----------------------------------------------------------------|

Rainbow
D|-------------------------------------------------------------------|
A|-------------------------------------------------------------------|
D|-------------------------------------------------------------------|
D|-0-0-0-0-0-0-0-0-4-4-4-4-4-4-4-4-0-0-0-0-0-0-0-0-4-4-4-4-4-4-4-4---|
A|-0-0-0-0-0-0-0-0-4-4-4-4-4-4-4-4-0-0-0-0-0-0-0-0-4-4-4-4-4-4-4-4---|
D|-0-0-0-0-0-0-0-0-4-4-4-4-4-4-4-4-0-0-0-0-0-0-0-0-4-4-4-4-4-4-4-4---|

-------------------------------------------------------------

Falcore
e|-----------------------------------------------------------------|
B|---------------------------------10--------10-----12--14-12(ring)|
G|-----------9---9-7-----------------9-----9-----------------------|
D|-9-11-9------------9(ring)-----------7---------------------------|
A|-----------------------------------------------------------------|
D|-----------------------------------------------------------------|

Rainbow
D|-------------------------------------------------------------------|
A|-------------------------------------------------------------------|
D|-------------------------------------------------------------------|
D|-2-2-2-2-2-2-2-2-0-0-0-0-0-0-0-0-4-4-4-4-4-4-4-4-2-2-2-2-2-2-2-2---|
A|-2-2-2-2-2-2-2-2-0-0-0-0-0-0-0-0-4-4-4-4-4-4-4-4-2-2-2-2-2-2-2-2---|
D|-2-2-2-2-2-2-2-2-0-0-0-0-0-0-0-0-4-4-4-4-4-4-4-4-2-2-2-2-2-2-2-2---|

-------------------------------------------------------------

Falcore (Play each note twice except the very first)
e|-5---------------2------5---4--------------------2-------5---7-------|
B|-------------2------3------------------------2-------3---------------|
G|-----2---4---------------------------2---4---------------------------|
D|---------------------------------------------------------------------|
A|---------------------------------------------------------------------|
D|---------------------------------------------------------------------|

Rainbow
D|-------------------------------------------------------------------|
A|-------------------------------------------------------------------|
D|-------------------------------------------------------------------|
D|-0-0-0-0-0-0-0-0-4-4-4-4-4-4-4-4-0-0-0-0-0-0-0-0-4-4-4-4-4-4-4-4---|
A|-0-0-0-0-0-0-0-0-4-4-4-4-4-4-4-4-0-0-0-0-0-0-0-0-4-4-4-4-4-4-4-4---|
D|-0-0-0-0-0-0-0-0-4-4-4-4-4-4-4-4-0-0-0-0-0-0-0-0-4-4-4-4-4-4-4-4---|

-------------------------------------------------------------


Falcore (Play the last 8 notes twice, except for the very last one)
e|---5-4-5---5---12---10-9-10---10---10-9----------------------------|
B|----------------------------------------12--10---9-----------------|
G|---------------------------------------------------9-7-6-----------|
D|---------------------------------------------------------7(ring)---|
A|-------------------------------------------------------------------|
D|-------------------------------------------------------------------|

Rainbow
D|-------------------------------------------------------------------|
A|-------------------------------------------------------------------|
D|-------------------------------------------------------------------|
D|-2-2-2-2-2-2-2-2-0-0-0-0-0-0-0-0-4-4-4-4-4-4-4-4-2-2-2-2-2-2-2-2---|
A|-2-2-2-2-2-2-2-2-0-0-0-0-0-0-0-0-4-4-4-4-4-4-4-4-2-2-2-2-2-2-2-2---|
D|-2-2-2-2-2-2-2-2-0-0-0-0-0-0-0-0-4-4-4-4-4-4-4-4-2-2-2-2-2-2-2-2---|

=============================================================
Tap to rate this tab
# A B C D E F G H I J K L M N O P Q R S T U V W X Y Z