Song name
# A B C D E F G H I J K L M N O P Q R S T U V W X Y Z

The Confession - Time Is Gone tab

i cant tab so you can figure out the rhythms and stuff but these are the chords behind 
Is Gone so an elite players want to tab the melodys and send it too me 
i could get a guitar pro file up pretty quickly with all the parts on.

________________________________________________________________________________

Time Is Gone
The Confession
Drop C
Rhythm Chords


 Intro + Verse 1
||----------||
||----------||
||----------||
||--8----7--||
||--5----3--||
||--5----3--||

Pre-Chorus
||---------------------||
||---------------------||
||------7---5----------||
||--5---7---5---8---3--||
||--5---5---3---8---3--||
||--5-----------8---3--||x2

||-------------||
||-------------||
||--2---3---7--||
||--2---3---7--||
||--0---1---5--||
||-------------||

Chorus
||--------------------------||
||--------------------------||
||--8--7--5-----------------||
||--8--7--5--8--7--5--8--3--||
||--6--5--3--8--8--7--8--3--||
||-----------8--7--5--8--3--||

||--------||
||--------||
||--3--7--||
||--3--7--||
||--1--5--||
||--------||

||--------------------------||
||--------------------------||
||--8--7--5-----------------||
||--8--7--5--8--7--5--8--3--||
||--6--5--3--8--8--7--8--3--||
||-----------8--7--5--8--3--||

||--------------||
||--------------||
||--------------||
||--5--4--3--1--||
||--5--4--3--1--||
||--5--4--3--1--||

Verse 2

Pre-Chorus

Chorus

Solo
||--------------------------------------------||
||--------------------------------------------||
||--------------------------------------------||
||--1--3--5--3--0--1--3--5--3--0--1--3--1--3--||
||--1--3--5--3--0--1--3--5--3--0--1--3--1--3--||
||--1--3--5--3--0--1--3--5--3--0--1--3--1--3--||x2

Pre-Chorus x2

Chorus

__________________________________________________________________________________
____________
And that is it. enjoy and any better players who can figure out the main melodys could 
send them to me (teenage_mutant_ginger_blurtals@hotmail.co.uk) and ill post a guitar pro 
for those who want one.
Tap to rate this tab
# A B C D E F G H I J K L M N O P Q R S T U V W X Y Z